White Moth chords

Xavier Rudd

Key: 

  			 
Versos: 
      D      F#m    Bm   A 
e|----------------2-2---------| 
B|--7-7----7-7----3-3--5-5----| 
G|--7------------------6-6----| 
D|----------------------------| 
A|--5---5--4---4--2-2---------| 
E|---------------------5---5--| 

Refrão: 
      D         A        Bm   A 
e|------------------------------------| 
B|------------------------------------| 
G|--11-11-----------------------------| 
D|--12----12--11-11----7-7--11-11-----| 
A|------------12---12--9-9--12----12--| 
E|------------------------------------| 
 

Intro: D   D  F#m  Bm  A  D  F#m  Bm  A 

D     F#m             Bm           A 
 tiny bones and skin, sand on your feet 
D              F#m           Bm             A 
 these healthy children, the fruits of your tree 
D             F#m         Bm     A 
 turquoise flotation, the Indian sea 
       D       F#m    Bm      A 
we can float together you and me 

D        A               Bm        A 
 yeah we love you it's a beautiful day 
D                 A               Bm    A 
 thankyou for the journey to this new decade we've been 
D           A                 Bm          A 
gifted this island we've been gifted this day 
              D      A              Bm        A 
and we're all here together on this beautiful day 

Interlude: D  F#m  Bm  A  D  F#m  Bm  A 

Finojet is taking steps 1,2,3 
and the other one keeps on amazing us by what he can see 
to you through broken shells a white moth comes, she gives 
herself to him, because he keeps you strong 

yeah we love you it's a beautiful day 
thankyou for the journey to this new decade we've been 
gifted this island we've been gifted this day 
and we're all here together on this beautiful day 

yeah we love you it's a beautiful day 
and we're all here together on this beautiful day 
yeah we love you it's a beautiful day 
and we're all here together on this beautiful day 

Outro: D  F#m  Bm  A  D