Jy Suis Jamais Alle chords

Yann Tiersen

  			
Intro 

e|---3---2---3---2---5---5--3--2--|---3---2---3---2---5---5--3--2--| 
B|--------------------------------|--------------------------------| 
G|--------------------------------|--------------------------------| 
D|--------------------------------|--------------------------------| 
A|--------------------------------|--------------------------------| 
E|--------------------------------|--------------------------------| 

e|---7---5---7---5---8---7--5-----|---7---5---7---5---8---7--5-----| 
B|--------------------------------|--------------------------------| 
G|--------------------------------|--------------------------------| 
D|--------------------------------|--------------------------------| 
A|--------------------------------|--------------------------------| 
E|--------------------------------|--------------------------------| 


Chorus 

e|--3--3--2--3--3--2--5--5--3--2--2--0h2--|--3--3--2--3--3--2--5--5--3--2--2--0h2--| 
B|----------------------------------------|----------------------------------------| 
G|----------------------------------------|----------------------------------------| 
D|----------------------------------------|----------------------------------------| 
A|----------------------------------------|----------------------------------------| 
E|----------------------------------------|----------------------------------------| 

e|--7--7--7--5--7--7--7--5--8--8-7h8-5--5--3h5--|--7--7--7--5--7--7--7--5--8--7h8-5-2--| 
B|----------------------------------------------|--------------------------------------| 
G|----------------------------------------------|--------------------------------------| 
D|----------------------------------------------|--------------------------------------| 
A|----------------------------------------------|--------------------------------------| 
E|----------------------------------------------|--------------------------------------| 


Bridge 

e|--3--5--3---2h3--5--7--5---3h5--7--8--7--5--3--2--| 
B|--------------------------------------------------| 
G|--------------------------------------------------| 
D|--------------------------------------------------| 
A|--------------------------------------------------| 
E|--------------------------------------------------| 

e|--3--3--5--3---2h3--5--5--7--5---3h5--7--7--8--7--5--3--2--| 
B|-----------------------------------------------------------| 
G|-----------------------------------------------------------| 
D|-----------------------------------------------------------| 
A|-----------------------------------------------------------| 
E|-----------------------------------------------------------| 


verse 1 

e|--3--5--7--8--7--5--7---3--5--7--8--7--5--7--| 
B|---------------------------------------------| 
G|---------------------------------------------| 
D|---------------------------------------------| 
A|---------------------------------------------| 
E|---------------------------------------------| 

e|--2--3--5--3---2--3--5--3--| 
B|---------------------------| 
G|---------------------------| 
D|---------------------------| 
A|---------------------------| 
E|---------------------------| 


verse 2 

e|--3--5--7--8--7--5--7---3--5--7--8--7--5--7--| 
B|---------------------------------------------| 
G|---------------------------------------------| 
D|---------------------------------------------| 
A|---------------------------------------------| 
E|---------------------------------------------| 


e|--2--3--5--3---2--3--5--3--| 
B|---------------------------| 
G|---------------------------| 
D|---------------------------| 
A|---------------------------| 
E|---------------------------| 


Chorus 

e|--3--3--2--3--3--2--5--5--3--2--2--0h2--|--3--3--2--3--3--2--5--5--3--2--2--0h2--| 
B|----------------------------------------|----------------------------------------| 
G|----------------------------------------|----------------------------------------| 
D|----------------------------------------|----------------------------------------| 
A|----------------------------------------|----------------------------------------| 
E|----------------------------------------|----------------------------------------| 

e|--7--7--7--5--7--7--7--5--8--8-8-7h8-5--5--3h5--|--7--7--7--5--7--7--7--5--8--8-8-7h8-5--7--8--7--3~~~| 
B|------------------------------------------------|-----------------------------------------------------| 
G|------------------------------------------------|-----------------------------------------------------| 
D|------------------------------------------------|-----------------------------------------------------| 
A|------------------------------------------------|-----------------------------------------------------| 
E|------------------------------------------------|-----------------------------------------------------| 


************************************ 

| h   Hammer-on 
| ~   Vibrato 

************************************