Pronto Fraco chords

Zé Filho

Key: 

  			Intro.: E C#m A F#  

     E   A  
 Pergunta  
  E                                    C#m                
 De todos os detalhes sobre minha vida me conta  
                                         A  
 Das minhas aventuras e paixões bandidas eu conto  
     F#m                                   B  
 As minhas fantasias e os meus sonhos pra você  

  E     A 
 Me pede  
 E                                          C#m 
 As dicas pra saber do que um homem gosta confesso  
                                          A    
 Que pra mulher que amo sempre mando rosas e ainda  
     F#m                               B  
 Escrevo cartas faço mil declarações de amor  

    E  
 Espero que voce não queira só jogar  
  C#m  
 Porque meu ponto fraco estão nesse paixão  
     A                     F#m  
 Me falar de amor só pra me provocar  
  B  
 Pra vê a minha reação  
  E  
 Me rendo, eu assumo que estou te amando  
     C#m  
 Eu passo os dias e as noites sonhando  
   A               F#m 
 Mas esse amor tem sabor proibido  
  B  
 Sei que posso me dar mal  
   E  
 Que paixão é essa tão inconseqüente  
     C#m  
 Que invade os sentidos confunde a mente  
      A                F#m 
 Não posso fugir e nem posso evitar  
     B                       E                    
 Esse meu desejo louco de te amar  

  E         C#m                     A 
e|-------------------------------------------------| 
B|----------------9h10-9-7---7------9h10p9-7--10-9-| 
G|-------6--6/9-----------9----9~------------9-----| 
D|----4-6------------------------------------------| 
A|--7----------------------------------------------| 
E|-------------------------------------------------| 
                      F#m               B 
e|-------------------------------------------------| 
B|--7---10-9-7---9-9-9/10~---9h10p9------10--------| 
G|----9--------9--------------------11-9----9------| 
D|-------------------------------------------------| 
A|-------------------------------------------------| 
E|-------------------------------------------------| 
                                   
e|---------------7--9--11--12-11-9-----------------| 
B|---------------------------------12~-------------| 
G|-----9-------9--9--9---9-------------------------| 
D|--11---9~----------------------------------------| 
A|-------------------------------------------------| 
E|-------------------------------------------------| 


Refrão 

    E  
 Espero que voce não queira só jogar  
  C#m  
 Porque meu ponto fraco estão nesse paixão  
     A                     F#m  
 Me falar de amor só pra me provocar  
  B  
 Pra vê a minha reação  
  E  
 Me rendo, eu assumo que estou te amando  
     C#m  
 Eu passo os dias e as noites sonhando  
   A               F#m 
 Mas esse amor tem sabor proibido  
  B  
 Sei que posso me dar mal  
   E  
 Que paixão é essa tão inconseqüente  
     C#m  
 Que invade os sentidos confunde a mente  
      A                F#m 
 Não posso fugir e nem posso evitar  
     B                       E                    
 Esse meu desejo louco de te amar.  

     C#m  
 Eu passo os dias e as noites sonhando  
   A               F#m 
 Mas esse amor tem sabor proibido  
  B  
 Sei que posso me dar mal  
   E  
 Que paixão é essa tão inconseqüente  
     C#m  
 Que invade os sentidos confunde a mente  
      A                F#m 
 Não posso fugir e nem posso evitar  
     B                       E                    
 Esse meu desejo louco de te amar.  


Qualquer coisa estou sempre oline para ajuda 
O meu msn é [email protected] 
Morro na cidade de Serraria - PB 
Venha me visitar