Marie Louise chords

Zebulon

  			
G|---------------------------------| 
D|-------------------4-------4-----| 
A|-2---2---2---2---4---4---4---4---| 
E|---2---2---2---2-------2-------2-| 


G|---------------------------------| 
D|---------------------------------| 
A|-4--54--54--542------------------| 
E|---------------54----------------| 

Couplet 
      15X         4X 
G|--------|----------| 
D|*------*|*--------*| 
A|*---4--*|*---2----*| 
E|--2-----|------2---| 

Variation avant les punchs (chez pas si c'est vrai...) 
G|---------------------------------------------------| 
D|-----4-------4-------------------------------------| 
A|---4---4---4---4-----------------------------------| 
E|-2-------2-------2---------------------------------| 

Solo 2:23 
G|-----------------------------------------------------------------| 
D|----------------------4-------4----------------------------------| 
A|-2---2---2---2------4----4--4---4-----2---2---2---2--2/-4/6/7/8--| 
E|---2---2---2---2--2-------2------2------2---2---2---2------------| 

Punch final 
G|----------| 
D|----------| 
A|--4-------| 
E|-----2----|