Long Train Runnin chords

Zeke

  			                                                                    wah 
eb:-------------------------------------------------------------------| 
Bb:-------------------------------------------------------------------| 
Gb:-------------------------------------------------------------------| 
Db:-----------------------------------------------------------------7-| 
Ab:-2-2-2---2-2-2---2-2-2---2-2-2-7--2-2-2---2-2-2---2-2-2---2-2-2--7-| 
Eb:-0-0-0-3-0-0-0-3-0-0-0-3-0-0-0-5--0-0-0-3-0-0-0-3-0-0-0-3-0-0-0--5-| 


   long train out the night  
   long train all the night  
   long train at my mind  
   my mind aint feeling right 
eb:---------------------------------------------------------| 
Bb:---------------------------------------------------------| 
Gb:---------------------------------------------------------| 
Db:---------------------------------------------------------| 
Ab:-2-2-2---2-2-2---2-2-2---2-2-2-7-2-2-2---2-2-2---2-2-2---| 
Eb:-0-0-0-3-0-0-0-3-0-0-0-3-0-0-0-5-0-0-0-3-0-0-0-3-0-0-0-3-| 

  i´m riding everyday get on my knees and pray 
eb:-----------------------------| 
Bb:-----------------------------| 
Gb:-----------------------------| 
Db:-7-7-7-7-7-7--5-5-5-5-5-5-5--| 
Ab:-5-5-5-5-5-5--3-3-3-3-3-3-3--| 
Eb:-----------------------------| 


solo 1 
eb:--------------------------------------------------------------------------------------| 
Bb:-15b-15b-15b-15b-15b--15-12h15p12----12h15p12-----12h15p12----12h15p12----------------| 
Gb:----------------------------------14-----------14----------14----------14-12h14p12----| 
Db:-----------------------------------------------------------------------------------14-| 
Ab:--------------------------------------------------------------------------------------| 
Eb:--------------------------------------------------------------------------------------| 

eb:-----------| 
Bb:-----------| 
Gb:-12-14-14b-| 
Db:-----------| 
Ab:-----------| 
Eb:-----------| 


 long train out of control long train gain control long train at my mind, my mind aint  
 feeling right 
eb:---------------------------------------------------------| 
Bb:---------------------------------------------------------| 
Gb:---------------------------------------------------------| 
Db:---------------------------------------------------------| 
Ab:-2-2-2---2-2-2---2-2-2---2-2-2-7-2-2-2---2-2-2---2-2-2---| 
Eb:-0-0-0-3-0-0-0-3-0-0-0-3-0-0-0-5-0-0-0-3-0-0-0-3-0-0-0-3-| 

  i´m riding everyday get on my knees and pray 
eb:-----------------------------| 
Bb:-----------------------------| 
Gb:-----------------------------| 
Db:-7-7-7-7-7-7--5-5-5-5-5-5-5--| 
Ab:-5-5-5-5-5-5--3-3-3-3-3-3-3--| 
Eb:-----------------------------| 

solo 2 
eb:----------------------------------------------------------------| 
Bb:-15b-15b-15b-15b------------------------------------------------| 
Gb:-14b-14b-14b-14b--14-12-14-12-----------------------------------| 
Db:------------------------------14-12-14-12-----------------------| 
Ab:------------------------------------------14-12-14-12-----------| 
Eb:------------------------------------------------------15-12-15b-| 

   my fate is here with you i´m gonna feel it too 
eb:-----------------------------| 
Bb:-----------------------------| 
Gb:-----------------------------| 
Db:-7-7-7-7-7-7--5-5-5-5-5-5-5--| 
Ab:-5-5-5-5-5-5--3-3-3-3-3-3-3--| 
Eb:-----------------------------| 

    only   only   only   this train goes back  again 
eb:--------------------------------------| 
Bb:--------------------------------------| 
Gb:--------------------------------------| 
Db:--------------------------------------| 
Ab:-7-9-9--7-9-9--7-9-9--7-9-9-----------| 
Eb:-5-7-7--5-7-7--5-7-7--5-7-7-----------| 

   long train  long train runnin'...                         alright  
eb:-------------------------------------------------------------| 
Bb:-------------------------------------------------------------| 
Gb:-------------------------------------------------------------| 
Db:---------------------------------------------------------5---| 
Ab:-2-2-2--7-7-7--2-2-2--7-7-7--2-2-2--7-7-7--2-2-2--7-7-7--3---| 
Eb:-0-0-0--5-5-5--0-0-0--5-5-5--0-0-0--5-5-5--0-0-0--5-5-5------| 

                                                 come on 
eb:-----------------------------------------------------------------| 
Bb:-----------------------------------------------------------------| 
Gb:-----------------------------------------------------------------| 
Db:-----------------------------------------------------7---7---7---| 
Ab:-2-2-2---2-2-2---2-2-2---2-2-2-7--2-2-2---2-2-2---2--5-7-5-7-5-7-| 
Eb:-0-0-0-3-0-0-0-3-0-0-0-3-0-0-0-5--0-0-0-3-0-0-0-3-0----5---5---5-| 


 long train out the night long train all the night long train at my mind, my mind aint  
 feeling right 
eb:---------------------------------------------------------| 
Bb:---------------------------------------------------------| 
Gb:---------------------------------------------------------| 
Db:---------------------------------------------------------| 
Ab:-2-2-2---2-2-2---2-2-2---2-2-2-7-2-2-2---2-2-2---2-2-2---| 
Eb:-0-0-0-3-0-0-0-3-0-0-0-3-0-0-0-5-0-0-0-3-0-0-0-3-0-0-0-3-| 

  i´m riding everyday get on my knees and pray 
eb:-----------------------------| 
Bb:-----------------------------| 
Gb:-----------------------------| 
Db:-7-7-7-7-7-7--5-5-5-5-5-5-5--| 
Ab:-5-5-5-5-5-5--3-3-3-3-3-3-3--| 
Eb:-----------------------------| 

solo 3 
eb:--------------------------------------------------------------------------------------| 
Bb:-15b-15b-15b-15b-15b--15-12h15p12----12h15p12-----12h15p12----12h15p12----------------| 
Gb:----------------------------------14-----------14----------14----------14-12h14p12----| 
Db:-----------------------------------------------------------------------------------14-| 
Ab:--------------------------------------------------------------------------------------| 
Eb:--------------------------------------------------------------------------------------| 

   my fate is here with you i´m gonna feel it too 
eb:-----------------------------| 
Bb:-----------------------------| 
Gb:-----------------------------| 
Db:-7-7-7-7-7-7--5-5-5-5-5-5-5--| 
Ab:-5-5-5-5-5-5--3-3-3-3-3-3-3--| 
Eb:-----------------------------| 

    only   only   only   this train goes back  again 
eb:--------------------------------------| 
Bb:--------------------------------------| 
Gb:--------------------------------------| 
Db:--------------------------------------| 
Ab:-7-9-9--7-9-9--7-9-9--7-9-9-----------| 
Eb:-5-7-7--5-7-7--5-7-7--5-7-7-----------| 

   long train  long train runnin'...                        
eb:--------------------------------------------------------| 
Bb:--------------------------------------------------------| 
Gb:--------------------------------------------------------| 
Db:--------------------------------------------------------| 
Ab:-2-2-2--7-7-7--2-2-2--7-7-7--2-2-2--7-7-7--2--7--2------| 
Eb:-0-0-0--5-5-5--0-0-0--5-5-5--0-0-0--5-5-5--0--5--0------| 

solo 4 
       repeat      repeat 
:----|----------|-------------|----------------------------------------------------------| 
:----|---7h10p7-|-10p7-10p7---|-10p7h10p7-------------------------14b-14b-14b-14b--------| 
:-/9-|-9--------|-----------9-|-----------9-7-9-7---7-9-9b-9b-9b--12b-12b-12b-12b--14p12-| 
:----|----------|-------------|-------------------9--------------------------------------| 
:----|----------|-------------|----------------------------------------------------------| 
:----|----------|-------------|----------------------------------------------------------| 


            repeat   
eb:-------|-------------|----------------------------------------------------------| 
Bb:-------|-------------|--------------------------------------14b-14b-14b-14b-14b-| 
Gb:-14p12-|----12-14-12-|-14-12-14-12----------------------12--12b-12b-12b-12b-12b-| 
Db:-------|-14----------|-------------14-12-14-12----12-14-------------------------| 
Ab:-------|-------------|-------------------------14-------------------------------| 
Eb:-------|-------------|----------------------------------------------------------| 


   long train  long train runnin'...                        
eb:------------------------------------------------------------| 
Bb:------------------------------------------------------------| 
Gb:------------------------------------------------------------| 
Db:------------------------------------------------------------| 
Ab:-2-2-2--7-7-7--2-2-2--7-7-7--2-2-2--7-7-7--2-2-2--7-7-7--2--| 
Eb:-0-0-0--5-5-5--0-0-0--5-5-5--0-0-0--5-5-5--0-0-0--5-5-5--0--| 

eb:------------------------------| 
Bb:------------------------------| 
Gb:------------------------------| 
Db:-5-5-5-5-5-5-5-5-5-5-5-5-5-5--| 
Ab:-3-3-3-3-3-3-3-3-3-3-3-3-3-3--| 
Eb:------------------------------| 

eb:------------------------------------------------------------| 
Bb:------------------------------------------------------------| 
Gb:-5-5-5-5-5-10-10-10-9-9--5-5-5-5-5--10-10-10-9-9--5-5-5-5-5-| 
Db:-x-x-x-x-x-x--x--x--x-x--x-x-x-x-x--x--x--x--x-x--x-x-x-x-x-| 
Ab:-3-3-3-3-3-8--8--8--7-7--3-3-3-3-3--8--8--8--7-7--3-3-3-3-3-| 
Eb:------------------------------------------------------------| 

eb:------------------------| 
Bb:------------------------| 
Gb:------------------------| 
Db:-4/---------------------| 
Ab:-2/---------------------| 
Eb:------------------------| 





hillo son mex 

herson 

hermoustrillo 

25/05/05 

retabbed 21/09/18