Two Lane Blacktop chords

Zeke

  			
D:--------------| 
A:--------------| 
F:--------------| 
C:-9-8-7--8-7-5-| 
G:-7-6-5--6-5-3-| 
D:--------------| 

   where to look your (path?) heading down the highway 
D:-------------------------------------| 
A:-------------------------------------| 
F:-------------------------------------| 
C:-2--2-2-2-2---2-2-2-2---2-2-2--5--7--| 
G:-0--0-0-0-0-3-0-0-0-0-3-0-0-0--3--5--| 
D:-------------------------------------| 

   we select this         moving down the road 
D:-------------------------------------| 
A:-------------------------------------| 
F:-------------------------------------| 
C:-2--2-2-2-2---2-2-2-2---2-2-2--8-7-5-| 
G:-0--0-0-0-0-3-0-0-0-0-3-0-0-0--6-5-3-| 
D:-------------------------------------| 

   i've been doing this so just to make it my way      
D:-------------------------------------| 
A:-------------------------------------| 
F:-------------------------------------| 
C:-2--2-2-2-2---2-2-2-2---2-2-2--5--7--| 
G:-0--0-0-0-0-3-0-0-0-0-3-0-0-0--3--5--| 
D:-------------------------------------| 

  and i got to do this silence on every road  
D:-------------------------------------| 
A:-------------------------------------| 
F:-------------------------------------| 
C:-2--2-2-2-2---2-2-2-2---2-2-2--8-7-5-| 
G:-0--0-0-0-0-3-0-0-0-0-3-0-0-0--6-5-3-| 
D:-------------------------------------| 

D:--------------| 
A:--------------| 
F:--------------| 
C:-9-5-7--8-7-5-| 
G:-7-3-5--6-5-3-| 
D:--------------| 

   rolling down the highway 
D:------------------------------------| 
A:------------------------------------| 
F:------------------------------------| 
C:----2-2-2-2-2---2-2-2--9-5-7--8-7-5-| 
G:-3--0-0-0-0-0-3-0-0-0--7-3-5--6-5-3-| 
D:------------------------------------| 
   
   tailing down the road 
D:------------------------------------| 
A:------------------------------------| 
F:------------------------------------| 
C:----2-2-2-2-2---2-2-2--8-5-7--8-7-5-| 
G:-3--0-0-0-0-0-3-0-0-0--6-3-5--6-5-3-| 
D:------------------------------------| 

   tailing with the devil 
D:------------------------------------| 
A:------------------------------------| 
F:------------------------------------| 
C:----2-2-2-2-2---2-2-2--9-5-7--8-7-5-| 
G:-3--0-0-0-0-0-3-0-0-0--7-3-5--6-5-3-| 
D:------------------------------------| 

                 two lane blacktop 
D:-----------------------------------| 
A:-----------------------------------| 
F:-----------------------------------| 
C:----------------12-----------------| 
G:-2--------------10--------------x\-| 
D:-0------------------------------x\-| 

D:----5-5-5-5-5-5-5----5-5-5-5-5-5-5--------------5-5-5-5-5-5-5-| 
A:----5-5-5-5-5-5-5----5-5-5-5-5-5-5-7-7p5---5----5-5-5-5-5-5-5-| 
F:-7b---------------7b---------------7-7p5---5-7b---------------| 
C:-----------------------------------------7--------------------| 
G:--------------------------------------------------------------| 
D:--------------------------------------------------------------| 

D:--------------| 
A:--------------| 
F:--------------| 
C:-9-8-7--8-7-5-| 
G:-7-6-5--6-5-3-| 
D:--------------| 

  now we are tailing on the wing to darkness 
D:-------------------------------------| 
A:-------------------------------------| 
F:-------------------------------------| 
C:-2--2-2-2-2---2-2-2-2---2-2-2--5--7--| 
G:-0--0-0-0-0-3-0-0-0-0-3-0-0-0--3--5--| 
D:-------------------------------------| 

   heading depth on to the things that we dont know 
D:-------------------------------------| 
A:-------------------------------------| 
F:-------------------------------------| 
C:-2--2-2-2-2---2-2-2-2---2-2-2--8-7-5-| 
G:-0--0-0-0-0-3-0-0-0-0-3-0-0-0--6-5-3-| 
D:-------------------------------------| 

  that my luck at least freed right on day 
D:-------------------------------------| 
A:-------------------------------------| 
F:-------------------------------------| 
C:-2--2-2-2-2---2-2-2-2---2-2-2--5--7--| 
G:-0--0-0-0-0-3-0-0-0-0-3-0-0-0--3--5--| 
D:-------------------------------------| 

   and you know we`re going straight on down the road 
D:-------------------------------------| 
A:-------------------------------------| 
F:-------------------------------------| 
C:-2--2-2-2-2---2-2-2-2---2-2-2--8-7-5-| 
G:-0--0-0-0-0-3-0-0-0-0-3-0-0-0--6-5-3-| 
D:-------------------------------------| 

D:--------------| 
A:--------------| 
F:--------------| 
C:-9-5-7--8-7-5-| 
G:-7-3-5--6-5-3-| 
D:--------------| 


   killing down the highway 
D:------------------------------------| 
A:------------------------------------| 
F:------------------------------------| 
C:----2-2-2-2-2---2-2-2--9-5-7--8-7-5-| 
G:-3--0-0-0-0-0-3-0-0-0--7-3-5--6-5-3-| 
D:------------------------------------| 
   burning down the road 
D:------------------------------------| 
A:------------------------------------| 
F:------------------------------------| 
C:----2-2-2-2-2---2-2-2--8-5-7--8-7-5-| 
G:-3--0-0-0-0-0-3-0-0-0--6-3-5--6-5-3-| 
D:------------------------------------| 
   dancing with devil 
D:------------------------------------| 
A:------------------------------------| 
F:------------------------------------| 
C:----2-2-2-2-2---2-2-2--9-5-7--8-7-5-| 
G:-3--0-0-0-0-0-3-0-0-0--7-3-5--6-5-3-| 
D:------------------------------------| 

                 two lane blacktop 
D:-----------------------------------| 
A:-----------------------------------| 
F:-----------------------------------| 
C:----------------12--12-12-12-12-12-| 
G:-2--------------10--10-10-10-10-10-| 
D:-0---------------------------------| 


D:-------------------------------------------| 
A:-------------------------------------------| 
F:-------------------------------------------| 
C:-14-14-x-x--14-14-x-x--14-14-x-x-----------| 
G:-12-12-x-x--12-12-x-x--12-12-x-x--10-10-10-| 
D:----------------------------------8--12-8--| 

D:------------------------------------| 
A:------------------------------------| 
F:------------------------------------| 
C:-14-14-x-x--14-14-x-x--5-6-7--8-7-5-| 
G:-12-12-x-x--12-12-x-x--3-4-5--6-5-3-| 
D:------------------------------------| 

  solo 
D:------------------------------------------18bf-18-15h17p15-| 
A:-5---5--------5---5--------5---5---------------------------| 
F:-7b----7p5----7b----7p5----7b----7p5-----------------------| 
C:-----------7------------7------------7---------------------| 
G:-----------------------------------------------------------| 
D:-----------------------------------------------------------| 

D:----------------------------------------------------------------| 
A:-18-15h17p15----------------------------------------------------| 
F:-------------18-15h17p15----------------------------------------| 
C:-------------------------17-15-17-15----------------------------| 
G:-------------------------------------17-15-17-15----------------| 
D:-------------------------------------------------18-18b-18b~~~~-| 


D:-------------------------------------------9-12-9-11-9-----------| 
A:-7b-5-7-7b--5-7-7b--5-7-7b------------7/11-------------12-9-11-9-| 
F:-7b-5-7-7b--5-7-7b--5-7-7b--7-7p5--------------------------------| 
C:----------------------------------7 -----------------------------| 
G:-----------------------------------------------------------------| 
D:-----------------------------------------------------------------| 

D:-------------------------------------------| 
A:-------------------------------------------| 
F:-12-9-11-9---------------------------------| 
C:-----------11-9-10-9------------11b~~~~\---| 
G:---------------------11-9-10-9-------------| 
D:-------------------------------------------| 

   do...             never on the freeway 
D:-------------------------------------| 
A:-------------------------------------| 
F:-------------------------------------| 
C:-2--2-2-2-2---2-2-2-2---2-2-2--5--7--| 
G:-0--0-0-0-0-3-0-0-0-0-3-0-0-0--3--5--| 
D:-------------------------------------| 

   lucifer i'll say your pray before i go 
D:-------------------------------------| 
A:-------------------------------------| 
F:-------------------------------------| 
C:-2--2-2-2-2---2-2-2-2---2-2-2--8-7-5-| 
G:-0--0-0-0-0-3-0-0-0-0-3-0-0-0--6-5-3-| 
D:-------------------------------------| 

   as the night approach the knight becomes the master 
D:-------------------------------------| 
A:-------------------------------------| 
F:-------------------------------------| 
C:-2--2-2-2-2---2-2-2-2---2-2-2--5--7--| 
G:-0--0-0-0-0-3-0-0-0-0-3-0-0-0--3--5--| 
D:-------------------------------------| 
  
  find a word into a world i never known 
D:-------------------------------------| 
A:-------------------------------------| 
F:-------------------------------------| 
C:-2--2-2-2-2---2-2-2-2---2-2-2--8-7-5-| 
G:-0--0-0-0-0-3-0-0-0-0-3-0-0-0--6-5-3-| 
D:-------------------------------------| 

D:--------------| 
A:--------------| 
F:--------------| 
C:-9-5-7--8-7-5-| 
G:-7-3-5--6-5-3-| 
D:--------------| 


   tearing down the highway 
D:------------------------------------| 
A:------------------------------------| 
F:------------------------------------| 
C:----2-2-2-2-2---2-2-2--9-5-7--8-7-5-| 
G:-3--0-0-0-0-0-3-0-0-0--7-3-5--6-5-3-| 
D:------------------------------------| 
   
   rolling down the road 
D:------------------------------------| 
A:------------------------------------| 
F:------------------------------------| 
C:----2-2-2-2-2---2-2-2--8-5-7--8-7-5-| 
G:-3--0-0-0-0-0-3-0-0-0--6-3-5--6-5-3-| 
D:------------------------------------| 

   dancing with the devil 
D:------------------------------------| 
A:------------------------------------| 
F:------------------------------------| 
C:----2-2-2-2-2---2-2-2--9-5-7--8-7-5-| 
G:-3--0-0-0-0-0-3-0-0-0--7-3-5--6-5-3-| 
D:------------------------------------| 

                two lane blacktop 
D:-----------------------------------| 
A:-----------------------------------| 
F:-----------------------------------| 
C:----------------12--12-12-12-12-12-| 
G:-2--------------10--10-10-10-10-10-| 
D:-0---------------------------------| 

                                         
D:-------------------------------------------| 
A:-------------------------------------------| 
F:-------------------------------------------| 
C:-14-14-x-x--14-14-x-x--14-14-x-x-----------| 
G:-12-12-x-x--12-12-x-x--12-12-x-x--10-10-10-| 
D:----------------------------------8--12-8--| 

        yeah 
D:--------------------------------| 
A:--------------------------------| 
F:--------------------------------| 
C:-14-14-x-x--14-14-x-x--8-7-5--2-| 
G:-12-12-x-x--12-12-x-x--6-5-3--0-| 
D:--------------------------------| 






hillo son mex 

31 /03/18