Teine Tama chords

Zipso

Key: 

  			
Guitar 1 
------------------------------------| 
-0~-------4~-------2~-------4~------| 
-1~-------4~-------2~-------4~-----*| 
-2~-------6~-------2~-------4~------| 
-2~-------6~-------0~-------2~-----*| 
-0~-------4~------------------------| 
 E       G#min     A        B 

Guitar 2 
Also repeated in intro, Choruses, 2nd part of the 2nd verse, 3rd verse 
and bridge. 
-------0-2-2/4-|--0-2h4-0-2/4--|--0-2h4-0-2/4--|--0-2h4-0-2/4--| 
---------------|---------------|---------------|---------------| 
---------------|---------------|---------------|--------------*| 
---------------|---------------|---------------|---------------| 
---------------|---------------|---------------|--------------*| 
---------------|---------------|---------------|---------------| 

 
    	

Top songs from Zipso