Garbage chords

Zoinks

  			

Intro 

e|----------3x-------------|--------------1x-------------| 
B|-------------------------|-----------------------------| 
G|---4-0---4-0---4-0---4-0-|---4-0---4-0---------5-5-5-5-| 
D|-------------------------|-------------2-2-2-2-5-5-5-5-| 
A|-------------------3-----|-------------2-2-2-2-3-3-3-3-| 
E|-3-----5-----0-----------|-3-----5-----0-0-0-0---------| 

Chorus (8x) "I'm tired of standing in line..." 

e|----------------------------------------------------| 
B|----------------------------------------------------| 
G|----------------------------------------5-5-5-5-5-5-| 
D|-5-5-5-5-5-5--7-7-7-7-7-7--2-2-2-2-2-2--5-5-5-5-5-5-| 
A|-5-5-5-5-5-5--7-7-7-7-7-7--2-2-2-2-2-2--3-3-3-3-3-3-| 
E|-3-3-3-3-3-3--5-5-5-5-5-5--0-0-0-0-0-0--------------| 

Verse "whoaaa" 

e|-------------------------------------| 
B|-------------------------------------| 
G|-5-5-5-5-5-5-5-5---------------------| 
D|-5-5-5-5-5-5-5-5--5--2-2-2-2-2-2-2-2-| 
A|-3-3-3-3-3-3-3-3--5--2-2-2-2-2-2-2-2-| 
E|------------------3--0-0-0-0-0-0-0-0-| 

e|-------------------------------------| 
B|-------------------------------------| 
G|-5-5-5-5-5-5-5-5--7------------------| 
D|-5-5-5-5-5-5-5-5--7--2-2-2-2-2-2-2-2-| 
A|-3-3-3-3-3-3-3-3--5--2-2-2-2-2-2-2-2-| 
E|---------------------0-0-0-0-0-0-0-0-| 

e|-------------------------------------| 
B|-------------------------------------| 
G|-5-5-5-5-5-5-5-5---------------------| 
D|-5-5-5-5-5-5-5-5--5--2-2-2-2-2-2-2-2-| 
A|-3-3-3-3-3-3-3-3--5--2-2-2-2-2-2-2-2-| 
E|------------------3--0-0-0-0-0-0-0-0-| 


"I gotta get out..." 

e|--------------------2x-------------------------------------| 
B|-----------------------------------------------------------| 
G|-5-5-5-5-5-5-5-5-------------7-7-7-7-7-7-------------------| 
D|-5-5-5-5-5-5-5-5-5-5-5-5-5---7-7-7-7-7-7---2-2-2-2-2-2-2-2-| 
A|-3-3-3-3-3-3-3-3-5-5-5-5-5---5-5-5-5-5-5---2-2-2-2-2-2-2-2-| 
E|-----------------3-3-3-3-3-----------------0-0-0-0-0-0-0-0-| 


e|-------------------------------| 
B|-------------------------------| 
G|-5-5-5-5-5-5-5-5-5-5-5-5-5-5-5-| 
D|-5-5-5-5-5-5-5-5-5-5-5-5-5-5-5-| 
A|-3-3-3-3-3-3-3-3-3-3-3-3-3-3-3-| 
E|-------------------------------| 

e|---------------------2x-----------------------------| 
B|----------------------------------------------------| 
G|----------------------------------------5-5-5-5-5-5-| 
D|-5-5-5-5-5-5--7-7-7-7-7-7--2-2-2-2-2-2--5-5-5-5-5-5-| 
A|-5-5-5-5-5-5--7-7-7-7-7-7--2-2-2-2-2-2--3-3-3-3-3-3-| 
E|-3-3-3-3-3-3--5-5-5-5-5-5--0-0-0-0-0-0--------------| 

Solo 

e|-------------------------------------------------10-10-10-10-| 
B|-------------10-10-10-10-12-12-12-12-13-13-13-13-------------| 
G|-12-12-12-12-------------------------------------------------| 
D|-------------------------------------------------------------| 
A|-------------------------------------------------------------| 
E|-------------------------------------------------------------| 

e|-------------------------------------------------------------| 
B|-13-13-13-13-12-12-12-12-10-10-10-12-------------10-10-10-10-| 
G|-------------------------------------12-12-12-12-------------| 
D|-------------------------------------------------------------| 
A|-------------------------------------------------------------| 
E|-------------------------------------------------------------| 

e|-------------------------10-10-10-10-------------------------| 
B|-12-12-12-12-13-13-13-13-------------13-13-13-13-12-12-12-12-| 
G|-------------------------------------------------------------| 
D|-------------------------------------------------------------| 
A|-------------------------------------------------------------| 
E|-------------------------------------------------------------| 

e|----------------------------------------------------------| 
B|-10-10-10-12----------------------------------------------| 
G|-------------12-12-12-11h12-12-12-12-11h12-12-12-12-11h12-| 
D|----------------------------------------------------------| 
A|----------------------------------------------------------| 
E|----------------------------------------------------------| 

e|-------------------------------------------------------| 
B|-------------------------------------------------------| 
G|-12-12-12-11h12----------------------------------------| 
D|-----------------4h5-5-5-5-4h5-5-5-5-4h5-5-5-5-4h5-5-5-| 
A|-------------------------------------------------------| 
E|-------------------------------------------------------| 


e|----------------------------------------------------| 
B|----------------------------------------------------| 
G|----------------------------------------5-5-5-5-5-5-| 
D|-5-5-5-5-5-5--7-7-7-7-7-7--2-2-2-2-2-2--5-5-5-5-5-5-| 
A|-5-5-5-5-5-5--7-7-7-7-7-7--2-2-2-2-2-2--3-3-3-3-3-3-| 
E|-3-3-3-3-3-3--5-5-5-5-5-5--0-0-0-0-0-0--------------| 
     x x x x x    x x x x x    x x x x x    x x x x x 


e|----------------------------------------------------------| 
B|----------------------------------------------------------| 
G|----------------------------------------5-----------------| 
D|-5-5-5-5-5-5--7-7-7-7-7-7--2-2-2-2-2-2--5--< pick slide >-| 
A|-5-5-5-5-5-5--7-7-7-7-7-7--2-2-2-2-2-2--3-----------------| 
E|-3-3-3-3-3-3--5-5-5-5-5-5--0-0-0-0-0-0--------------------| 
     x x x x x    x x x x x    x x x x x 

Chorus (8x) 

e|----------------------------------------------------| 
B|----------------------------------------------------| 
G|----------------------------------------5-5-5-5-5-5-| 
D|-5-5-5-5-5-5--7-7-7-7-7-7--2-2-2-2-2-2--5-5-5-5-5-5-| 
A|-5-5-5-5-5-5--7-7-7-7-7-7--2-2-2-2-2-2--3-3-3-3-3-3-| 
E|-3-3-3-3-3-3--5-5-5-5-5-5--0-0-0-0-0-0--------------| 

Verse 

e|-------------------------------------| 
B|-------------------------------------| 
G|-5-5-5-5-5-5-5-5---------------------| 
D|-5-5-5-5-5-5-5-5--5--2-2-2-2-2-2-2-2-| 
A|-3-3-3-3-3-3-3-3--5--2-2-2-2-2-2-2-2-| 
E|------------------3--0-0-0-0-0-0-0-0-| 

e|-------------------------------------| 
B|-------------------------------------| 
G|-5-5-5-5-5-5-5-5--7------------------| 
D|-5-5-5-5-5-5-5-5--7--2-2-2-2-2-2-2-2-| 
A|-3-3-3-3-3-3-3-3--5--2-2-2-2-2-2-2-2-| 
E|---------------------0-0-0-0-0-0-0-0-| 

e|-------------------------------------| 
B|-------------------------------------| 
G|-5-5-5-5-5-5-5-5---------------------| 
D|-5-5-5-5-5-5-5-5--5--2-2-2-2-2-2-2-2-| 
A|-3-3-3-3-3-3-3-3--5--2-2-2-2-2-2-2-2-| 
E|------------------3--0-0-0-0-0-0-0-0-| 


"gotta get out..." 

e|-------------------2x--------------------------------------| 
B|-----------------------------------------------------------| 
G|-5-5-5-5-5-5-5-5-------------7-7-7-7-7-7-------------------| 
D|-5-5-5-5-5-5-5-5-5-5-5-5-5---7-7-7-7-7-7---2-2-2-2-2-2-2-2-| 
A|-3-3-3-3-3-3-3-3-5-5-5-5-5---5-5-5-5-5-5---2-2-2-2-2-2-2-2-| 
E|-----------------3-3-3-3-3-----------------0-0-0-0-0-0-0-0-| 


e|-------------------------------| 
B|-------------------------------| 
G|-5-5-5-5-5-5-5-5-5-5-5-5-5-5-5-| 
D|-5-5-5-5-5-5-5-5-5-5-5-5-5-5-5-| 
A|-3-3-3-3-3-3-3-3-3-3-3-3-3-3-3-| 
E|-------------------------------| 

Outro 

e|----------3x-------------|--------------1x-------------| 
B|-------------------------|-----------------------------| 
G|---4-0---4-0---4-0---4-0-|---4-0---4-0---------5-5-5-5-| 
D|-------------------------|-------------2-2-2-2-5-5-5-5-| 
A|-------------------3-----|-------------2-2-2-2-3-3-3-3-| 
E|-3-----5-----0-----------|-3-----5-----0-0-0-0---------| 


End on 

E|---| 
B|---| 
G|---| 
D|-5-| 
A|-5-| 
E|-3-| 
    	

Top songs from Zoinks