Before It's Too Late chords

Boyce Avenue

Key: 

  			
Tuning: E A  D  G  C  G 


Acordes: 
 
  F    G   Am7   C 
--0----0----0----0---| 
--0----0----0----0---| 
--0----0----2----0---| 
--3----5----2----2---| 
--3----5----0----3---| 
--1----3-------------| 
 

Variação dos Acordes: 
 
  F    G    G    C   Am7 
--0----0----0----0----0---| 
--0----0----0----0----0---| 
--2----0----4----0----5---| 
--3----0----5----5----x---| 
--3----x----5----3----3---| 
--1----3----3---------5---| 
 

Intro: 
 
-0----0----0----0----0----0----0--| 
-0----0----0----0----0----0----0--| 
-0----0----0----0----0----0----0--| 
-3----5----7----5----3----5----3--| 
-3----5----7----5----3----5----3--| 
----------------------------------| 
 

Verse: 
 
-0----0----0----0----0----0----0--| 
-0----0----0----0----0----0----0--| 
-0----0----0----0----0----0----0--| 
-3----5----7----5----3----5----3--| 
-3----5----7----5----3----5----3--| 
----------------------------------| 
 

 
-0----0----0----0----0----0----0--| 
-0----0----0----0----0----0----0--| 
-0----0----0----0----0----0----0--| 
-3----5----7----5----3----5----2--| 
-3----5----7----5----3----5----3--| 
----------------------------------| 
 

Chorus: