Let Her Go chords

Boyce Avenue

Key: 

Capo: 4st fret

  			

 



Guitar 1 - Alejandro 
Guitar 2 - Hannah 

(Alejandro) 
e|---------3-----5-------------3-2-----------------------| 
B|-----3h5-------------------------5-3-0-----------------| 
G|-2s4-----------------------------------2----0h2--2s4p0-| 
D|-------------------------------------------------------| 
A|-------------------------------------------------------| 
E|-------------------------------------------------------| 

(Hannah) 
e|---------------------2-----------------------------2---| 
B|-------0h1-1-------3---3-------0-------0---------3---3-| 
G|-----0-------0---2-------2-------0-------0-----2-------| 
D|---2-----------0-----------0-------0h2-----2-0---------|  
A|-3---------------------------2-------------------------| 
E|-------------------------------------------------------| 

(Alejandro) 
e|----------3----5--------3-10-7-7s5-3s2---------| 
B|-----3h5-----------------------------------3---| 
G|-2s4-------------------------------------------| 
D|---------------------------------------------0-| 
A|-----------------------------------------------| 
E|-----------------------------------------------| 

(Hannah) 
e|---------------------2-----------------------| 
B|-------0h1-1-------3---3-------0-------0-----| 
G|-----0-------0---2-------2-------0-------0---| 
D|---2-----------0-----------0-------0h2-----2-|  
A|-3---------------------------2---------------| 
E|---------------------------------------------| 



              C                       G 
Only need the light when it s burning low 
              D                      Dsus4 
Only miss the sun when its starts to snow    
                   C                      G     D  
You only know your lover when you let her go 
                  Em C D Bm Em C D 
And you let her go 

(Hannah) 
   C       G       D       Dsus4   C       G         D 
e|-0-------3-------2-------3-------0-------3-------2-------| 
B|---1-------0-------3-------3-------1-------0-------3-----| 
G|-----0-------0-------2-------2-------0-------0-------2---| 
D|-----------------0-----0-0-----0-----------------0-----0-| 
A|-3-----3-------------------------3-----3-----------------| 
E|---------3-----3-------------------------3-----3---------| 
                  Em C D Bm Em C D 
And you let her go 


Verse: 

Em                            C 
Staring at the bottom of your glass 
       D                             Bm 
Hoping one day you will make a dream last 
                Em               C          D 
The dreams come slow and goes so fast 
    Em                          C 
You see her when you close your eyes 
      D                           Bm 
Maybe one day you will understand why 
               Em           C         D 
Everything you touch all it dies 

(Hannah) 
   Em      C       D       Bm             _ 
e|-0-----0-0-----0-2-----2-2-----2-|      
B|---0-------1-------3-------3-----|     
G|-----0-------0-------2-------4---|     
D|-----------------0---------------|     
A|-2-------3---------------2-------|     
E|---------------------------------|    
   Em      C       D
e|-0-----0-0-----0-2-------2-----2h3-|    
B|---0-------1-------3-------3-------|    
G|-----0-------0-------2-------------| 
D|-----------------0-----0-----0-----|  
A|-2-------3-------------------------|    
E|-----------------------------------|    
                                               
End with: 
   D 
e|-2-----3-2-----2h3-|     
B|---3-------3-------|     
G|-----2-------------|     
D|-0-----0-----0-----|     
A|-------------------|     
E|-------------------| 


              C                       G 
Only need the light when it's burning low 
              D                      Dsus4 
Only miss the sun when its starts to snow 
                   C                      G   D Dsus4  
You only know your lover when you let her go 
                      C                        G 
Only know you've been high when you're feeling low 
              D                       Dsus4 
Only hate the road when you're missin home 
               C                      G   D Dsus4 
Only know your lover when you let her go 


Verse: Alejandro 

Em                            C 
Staring at the ceiling in the dark 
         D                     Bm 
Same old empty feeling in your heart 
           Em                  C       D 
Love comes slow and it goes so fast 
         Em                      C 
Well you see her when you fall asleep 
                D                  Bm 
But to never to touch and never to keep 
                         Em 
Because you loved her to much 
                 C          D 
And you dive too deep 

(Hannah) 
   Em      C       D       Bm             _ 
e|-0-----0-0-----0-2-----2-2-----2-|       
B|---0-------1-------3-------3-----|      
G|-----0-------0-------2-------4---|     
D|-----------------0---------------|      
A|-2-------3---------------2-------|      
E|---------------------------------|      
   Em      C       D
e|-0-----0-0-----0-2-------2-----2h3-|   
B|---0-------1-------3-------3-------|    
G|-----0-------0-------2-------------|     
D|-----------------0-----0-----0-----|     
A|-2-------3-------------------------|    
E|-----------------------------------|    
                                               
End with: 
   D 
e|-2-----3-2-----2h3-|     
B|---3-------3-------|     
G|-----2-------------|     
D|-0-----0-----0-----|     
A|-------------------|     
E|-------------------| 



              C                       G 
Only need the light when it's burning low 
              D                      Dsus4 
Only miss the sun when its starts to snow 
                   C                      G   D Dsus4  
You only know your lover when you let her go 
                      C                        G 
Only know you've been high when you re feeling low 
              D                       Dsus4 
Only hate the road when you're missin home 
               C                      G   D Dsus4 
Only know your lover when you let her go 


Bridge: (Alejandro) 
e|-----------------------------------------------------|     
B|-8---------8---7-----3---5---------5---7---------7---|     
G|---0---------0---0-----0---0---------0---0---------0-|     
D|-----0---0---------0---------0---0---------0---0-----|     
A|-------------------------3-----3-------5-----5-------|     
E|-0-----0-------0-------------------------------------| 

e|-----------------------------------------|     
B|-8---------8---7-----3---5---------5---3-|     
G|---0---------0---0-----0---0---------0---|     
D|-----0---0---------0---------0---0-----0-|     
A|-------------------------3-----3---------|     
E|-0-----0-------0-------------------------| 


              C                       G 
You only need the light when it's burning low 
              D                      Dsus4 
Only miss the sun when its starts to snow 
                   C                      G   D Dsus4  
You only know your lover when you let her go 
                      C                        G 
Only know you've been high when you're feeling low 
              D                       Dsus4 
Only hate the road when you're missin home 
               C                      G   D Dsus4 
Only know your lover when you let her go 


(Hannah) 
   C             G             D             Dsus4   
e|-0-------0-----3-------3-----2-------2-----3-------3-----|  
B|---1-------1-----0-------0-----3-------3-----3-------3---|
G|-----0-------0-----0-------0-----2-------2-----2-------2-| 
D|-----------------------------0-----0-------0-----0-------|  
A|-3-----3-------------------------------------------------| 
E|---------------3-----3-----------------------------------|   
   C             G             D         
e|-0-------0-----3-------3-----2-------2-----2h3-|    
B|---1-------1-----0-------0-----3-------3-------|         
G|-----0-------0-----0-------0-----2-------------|         
D|-----------------------------0-----0-----0-----|         
A|-3-----3---------------------------------------|          
E|---------------3-----3-------------------------|          


Outro: Alejandro & Hannah 
                      C                        G 
Only know you've been high when you're feeling low 
              D                       Dsus4 
Only hate the road when you're missin home          
               C                      G   D 
Only know your lover when you let her go