Holy Water chords

The Superjesus

  			Intro 1 
E---------------| 
B--5-8----------| 
G--7-10---------| 
D--7-10---------| 
G-------0-3-----| 
C-------0-3-----| 
 
Intro 2 - Exact strumming 
E------------------------------------------------------| 
B------------------------------------------------------| 
G---------------------3----------------5---------------| 
D---------------------3----------------5---------------| 
G--0-0-0-3-3-0--0-3-0---0-0-0-3-3-0--0-3-0-5-0-3-------| 
C--0-0-0-3-3-0--0-3-0---0-0-0-3-3-0--0---0-5-0-3-------| 
 
Verse 
E----------------------------| 
B----8---10---11---10---8----| 
G----------------------------| 
D--9---9----9----9----9------| 
G----------------------------| 
C----------------------------| 
 
Pre-Chorus 
E----------------------------| 
B----------------------------| 
G----------------------------| 
D----------------------------| 
G--7-5-3-5-7--8-7-5----------| 
C--7-5-3-5-7--8-7-5----------| 
 
Chorus - Exact strumming until slide 
E-----------------------------------| 
B-----------------------------------| 
G-----------------------------------| 
D-----------------------------------| 
G--0-0-3-0-3-5--0-0-3-3-0-3/8-7-5---| 
C--0-0-3-0-3-5--0-0-3-3-0-3/8-7-5---| 
 
Last chord of chorus 
E------| 
B------| 
G------| 
D------| 
G--8---| 
C--8---| 
 
Intro 2 
Verse 
Pre-Chorus 
Chorus 
 
Interlude 
E------------------------------------------| 
B------------------------------------------| 
G--------------------------7-8------10-12/--| 
D------8---------10------7-------10--------| 
G----8---8----10----10-5-------8-----------| 
C--8-------10------------------------------| 
 
E---------------------| 
B---------------------| 
G---------------------| 
D------8-------8-10---| 
G----8---8---7--------| 
C--8-------7----------| 
 
Interlude 2 - Exact strumming 
E----------------------------| 
B----------------------------| 
G----------------------------| 
D----------------------------| 
G--0-0-3-3-0--0-3-3-0-3-5-7--| 
C--0-0-3-3-0--0-3-3-0-3-5-7--| 
 
Interlude 
Interlude 2 
Pre-Chorus 
Chorus 
 
Ending - Interlude 2