To The Rescue chords

The Waifs

Key: 

  			p = pull off 
 
 
th 
 
 
The simple verse Riff 
 
 
e |-------------------- 
B |-------------------- 
G |-------------------- 
D |-------------2p0---- 
A |-----2-2-3-3-----2-- 
E |-3-3---------------- 
 
 
    G       C9 
 
 
The chorus is 
 
 
e |-2--0--2--0-- 
B |-3--3--3--3-- 
G |-2--0--2--0-- 
D |-0--2--0--2-- 
A |----3-----3-- 
E |------------- 
 
 
    D  C9 D  C9 
 
 
 
When your boots are all worn,  
and your tired of travellin', 
When you got nowhere to call your own, 
You know my place can be your home 
 
 
To the recue, Here I come 
To the recue, Here I come 
 
 
When I was out there playin' hard 
With my big attitude, and my broken heart, 
Poison,my only friend, 
My drinkin' and addiction, 
 
 
To the Rescue, There you where 
To the Rescue, There you where 
 
 
Now were both out there,Were just floatin' around 
I'm still in space, and your on the ground. 
Your in my heart, your in my soul 
Tonight we will be no Rescuers 
 
 
To the rescue, Ill never let you fall, 
To the rescue, you're always on call.