Human Error chords

We Were Promised Jetpacks

  			

Intro/Verse: 

d|---------------------------| 
A|---------------------------| 
F|--4-----------------4------| (4x)
C|--4-----------------2------| 
G|--2------------------------| 
D|--------------------4------| 


Chorus 

d|---------------------------| 
A|---4-----2-----0-----2-----| 
F|---4-----3-----1-----3-----|  
C|---6-----4-----2-----4-----| 
G|---6-----4-----2-----4-----| 
D|---------------0-----------| 

d|---------------------------| 
A|---4-----2-----0-----------| 
F|---4-----3-----1-----------|  
C|---6-----4-----2-----------| 
G|---6-----4-----2-----------| 
D|---------------0-----------| 


Verse 2: 

d|---------------------------| 
A|---------------------------| 
F|--4-----------------4------| (4x)  
C|--4-----------------2------| 
G|--2------------------------| 
D|--------------------4------| 


Chorus 

d|---------------------------| 
A|---4-----2-----0-----2-----| 
F|---4-----3-----1-----3-----| (3x) 
C|---6-----4-----2-----4-----| 
G|---6-----4-----2-----4-----| 
D|---------------0-----------| 

d|---------------------------| 
A|---4-----2-----0-----------| 
F|---4-----3-----1-----------|  
C|---6-----4-----2-----------| 
G|---6-----4-----2-----------| 
D|---------------0-----------| 


Outro 

d|------4--------------------| 
A|---0--0--2--4--------------| 
F|---1--1--1--3--------------|  
C|---2--2--2--4--------------| 
G|---2--2--2--4--------------| 
D|---0--0--0-----------------| 

d|---------------------------| 
A|---4-----------------------| 
F|---4-----------------------|  
C|---2-----------------------| 
G|---0-----------------------| 
D|---------------------------|