Keeping Warm chords

We Were Promised Jetpacks

Key: 

  			

Tuning: E A D G B e 

In the background with weird delay / space pan 


First Guitar: 
e|-------------12------| 
B|--------12-----------| 
G|---14----------------| 
D|---------------------| 
A|---------------------| 
E|---------------------| 


Second Guitar: 

e|----------------------------------|----------------------------------------| 
B|----------------------------------|----------------------------------------| 
G|--------9-------------------------|-----------9----------------------------| 
D|----------------------------------|----------------------------------------| 
A|----------------------------------|----------------------------------------| 
E|----------------------------------|----------------------------------------| 

0:22 

e|----------------------------------|----------------------------------------| 
B|-----------12---------------------|----------------------------------------| 
G|-----14-14----9-------------------|-----------9----------------------------| 
D|----------------------------------|----------------------------------------| 
A|----------------------------------|----------------------------------------| 
E|----------------------------------|----------------------------------------| 


Third Guitar Joins: 
e|-------------------------------------------------------------| 
B|-------------------------------------------------------------| 
G|----------------------------------|--------------------------| 
D|----------------------------------|--------------------------| 
A|-------000-0-0-0-0-0--------------|--0-0-0-0-0-0-0-0-0-0-0-0-| 
E|----------------------------------|--------------------------| 


0:30 
e|-------12------------------12----------------------------------------------| 
B|-------------12h14------------------14------------12-----------------------| 
G|---14---------------------------------------------------11-----------------| 
D|---------------------------------------------------------------------------| 
A|---------------------------------------------------------------------------| 
E|---------------------------------------------------------------------------| 

e|------------------| 
B|------------------| 
G|----9/13----14----| 
D|------------------| 
A|------------------| 
E|------------------| 

e|-------12------------------------------| 
B|---14--------14------------------------| 
G|--------------------------------9--11--| 
D|---------------------------------------| 
A|---------------------------------------| 
E|---------------------------------------| 

e|------------------| 
B|------------------| 
G|----9/13----14----| 
D|------------------| 
A|------------------| 
E|------------------| 

(Drums Join) 

e|-------12------------------------------| 
B|---14--------14------------------------| 
G|--------------------------------9--11--| 
D|---------------------------------------| 
A|---------------------------------------| 
E|---------------------------------------| 

e|------------------| 
B|------------------| 
G|----9/13----14--13| 
D|------------------| 
A|------------------| 
E|------------------| 

e|---------12---------------12-----------| 
B|-12h14--------14--------------15-------| 
G|---------------------------------11----| 
D|---------------------------------------| 
A|---------------------------------------| 
E|---------------------------------------| 

e|--12--------------| 
B|-----15-----------| 
G|--------13--14--13| 
D|------------------| 
A|------------------| 
E|------------------| 

1:32 
Bass Joins: 

G|----------------------------------------------------------------------------| 
D|----------------------------------------------------------------------------| 
A|--0--0--0--0--0--0--0--0-0-5--5--5--5--5--5--5--5-5-7--7--7--7--7--7--7--7-7| 
E|----------------------------------------------------------------------------| 

Third Guitar: 
()Only first time 

e|----------------------------------------------------------| 
B|----------------------------------------------------------| 
G|-------(5)----7---5------7---7-------7-----9---9-8-7-6---5| 
D|-------(7)----7---7------7---7-------7-----9---9-8-7-6---7| 
A|-------(7)----7---7------7---5-------5-----7---7-6-5-4---7| 
E|-------(5)----5---5------5-------------------------------5| 


4:22 
Third Guitar Stop 
Bass Stop 
Second Guitar: 

            The chances    of being born  
e|---------------------------------------------------------------------------| 
B|---------------------------------------------------------------------------| 
G|-------11-------------7----------------9-----------------------------------| 
D|-------11-------------7----------------9-----------------------------------| 
A|-------9--------------5----------------7-----------------------------------| 
E|---------------------------------------------------------------------------| 

are so slim, so keep warm,   so keep warm 
e|---------------------------------------------------------------------------| 
B|---------------------------------------------------------------------------| 
G|-------11-------------7----------------9-----------------------------------| 
D|-------11-------------7----------------9-----------------------------------| 
A|-------9--------------5----------------7-----------------------------------| 
E|---------------------------------------------------------------------------| 

(Drums Join) 

And take some heart at being born at quite so young 
e|---------------------------------------------------------------------------| 
B|---------------------------------------------------------------------------| 
G|------------11-------------7----------------9------------------------------| 
D|------------11-------------7----------------9------------------------------| 
A|------------9--------------5----------------7------------------------------| 
E|---------------------------------------------------------------------------| 

You can learn to talk, and learn to walk in your own time 
e|---------------------------------------------------------------------------| 
B|---------------------------------------------------------------------------| 
G|---------------11-----------------7----------------9-----------------------| 
D|---------------11-----------------7----------------9-----------------------| 
A|---------------9------------------5----------------7-----------------------| 
E|---------------------------------------------------------------------------| 

Your so young...  

First Guitar: 
e|---------------------| 
B|--------12-----------| 
G|-------------14------|x1 
D|---14-------------14-|x1 
A|---------------------| 
E|---------------------| 

e|------------| 
B|---12-------| 
G|------14----|x... 
D|---------14-|x... 
A|------------| 
E|------------| 


4:58 

            So take heart         in being born 
e|---------------------------------------------------------------------------| 
B|---------------------------------------------------------------------------| 
G|------------11-------------7----------------9-9-9-9-9-9-9-9----------------| 
D|------------11-------------7----------------9-9-9-9-9-9-9-9----------------| 
A|------------9--------------5----------------7-7-7-7-7-7-7-7----------------| 
E|---------------------------------------------------------------------------| 

(|)Where the changes happen 
       |                    |                   |       
Making plans that you can't keep,that you've outgrown 
e|---------------------------------------------------------------------| 
B|---------------------------------------------------------------------| 
G|-----11-11-11-11-11-11-7-7-7-7-7-7-9-9-9-9-9-9-9-9-9-9-9-9-----------| 
D|-----11-11-11-11-11-11-7-7-7-7-7-7-9-9-9-9-9-9-9-9-9-9-9-9-----------| 
A|-----9--9--9--9--9--9--5-5-5-5-5-5-7-7-7-7-7-7-7-7-7-7-7-7-----------| 
E|---------------------------------------------------------------------| 

                  |           |          | 
You've taken this too far now take me home 
e|---------------------------------------------------------------------| 
B|---------------------------------------------------------------------| 
G|-----11-11-11-11-11-11-7-7-7-7-7-7-9-9-9-9-9-9-9-9-9-9-9-9-----------| 
D|-----11-11-11-11-11-11-7-7-7-7-7-7-9-9-9-9-9-9-9-9-9-9-9-9-----------| 
A|-----9--9--9--9--9--9--5-5-5-5-5-5-7-7-7-7-7-7-7-7-7-7-7-7-----------| 
E|---------------------------------------------------------------------| 

                    |                           |                   | 
There is nothing to eat and there is nowhere to sleep in these four walls 
e|---------------------------------------------------------------------| 
B|---------------------------------------------------------------------| 
G|-----11-11-11-11-11-11-7-7-7-7-7-7-9-9-9-9-9-9-9-9-9-9-9-9-----------| 
D|-----11-11-11-11-11-11-7-7-7-7-7-7-9-9-9-9-9-9-9-9-9-9-9-9-----------| 
A|-----9--9--9--9--9--9--5-5-5-5-5-5-7-7-7-7-7-7-7-7-7-7-7-7-----------| 
E|---------------------------------------------------------------------| 

You're so young... 

e|------------------------| 
B|------------------------| 
G|--17-17-17-17-17-17-17--| 
D|--14-14-14-14-14-14-14--| 
A|--12-12-12-12-12-12-12--| 
E|------------------------| 

e|------------------------| 
B|------------------------| 
G|--15-15-15-15-15-15-15--| 
D|--14-14-14-14-14-14-14--| 
A|--12-12-12-12-12-12-12--| 
E|------------------------| 

e|------------------------| 
B|------------------------| 
G|--14-14-14-14-14-14-14--| 
D|--14-14-14-14-14-14-14--| 
A|--12-12-12-12-12-12-12--| 
E|------------------------| 

Third Guitar: 

e|----------------------------------------------------| 
B|----------------------------------------------------| 
G|-------5----7---5------7---7-------7-----9---9--6--5| 
D|-------7----7---7------7---7-------7-----9---9--6--7| 
A|-------7----7---7------7---5-------5-----7---7--4--7| 
E|-------5----5---5------5---------------------------5| 

5:57 

e|-------------------------------------------------------| 
B|-------------------------------------------------------| 
G|-------------------------------------------------------| 
D|-------------------------------------------------------| 
A|--12-12-12-12-12-12-12-12-11-11-11-11-11-11-11-11------| 
E|-------------------------------------------------------| 

e|-------------------------------------------------| 
B|-------------------------------------------------| 
G|-------------------------------------------------| 
D|--12-12-12-12-12-12-12-12-12-12-12-12-12-12-12-12| 
A|-------------------------------------------------| 
E|-------------------------------------------------| 

e|-------------------------------------------------------| 
B|-------------------------------------------------------| 
G|-------------------------------------------------------| 
D|-------------------------------------------------------| 
A|--12-12-12-12-12-12-12-12-11-11-11-11-11-11-11-11------| 
E|-------------------------------------------------------| 

e|-------------------------------------------------| 
B|-------------------------------------------------| 
G|-------------------------------------------------| 
D|--12-12-12-12-12-12-12-12-12-12-12-12-12-12-12-12| 
A|-------------------------------------------------| 
E|-------------------------------------------------| 


6:08 

e|---------------------------------------------------| 
B|---------------------------------------------------| 
G|---------------------------------------------------| 
D|------11----11----11----11----11----11----11----11-| 
A|---12----12----12----12----12----12----12----12----| 
E|---------------------------------------------------| 

e|---------------------------------------------------| 
B|---------------------------------------------------| 
G|---------------------------------------------------| 
D|------14----14----14----14----14----14----14----14-| 
A|---12----12----12----12----12----12----12----12----| 
E|---------------------------------------------------| 

e|---------------------------------------------------| 
B|---------------------------------------------------| 
G|---------------------------------------------------| 
D|------11----11----11----11----11----11----11----11-| 
A|---12----12----12----12----12----12----12----12----| 
E|---------------------------------------------------| 

e|---------------------------------------------------| 
B|---------------------------------------------------| 
G|---------------------------------------------------| 
D|------14----14----14----14----14----14----14----14-| 
A|---12----12----12----12----12----12----12----12----| 
E|---------------------------------------------------| 

At the end of last riff 
e|-------------------------------| 
B|-------------------------------| 
G|-------------------------------| 
D|---14-------11-----------------| 
A|------12-14----14------12------| 
E|-------------------------------| 


6:25 

Third Guitar: 

e|------------------------------------| 
B|------------------------------------| 
G|----6-6-6-6-6-6-6-6-9-9-9-9-9-9-9-9-| 
D|----6-6-6-6-6-6-6-6-9-9-9-9-9-9-9-9-| 
A|----4-4-4-4-4-4-4-4-7-7-7-7-7-7-7-7-| 
E|------------------------------------| 




6:38 

Second Guitar: 

e|------------------------------------------------| 
B|------------------------------------------------| 
G|-----------------------9---------9--------------| 
D|---11---9-11-11---9-11---11-9-11---11-9-11------| 
A|------12--------12------------------------------| 
E|------------------------------------------------| 




7:01 
|                     |                        
The chances of being born             Are so slim  
e|------------------------------------------------| 
B|------------------------------------------------| 
G|-----------------------9---------9--------------| 
D|---11---9-11-11---9-11---11-9-11---11-9-11------| 
A|------12--------12------------------------------| 
E|------------------------------------------------| 

|                       | 
 So keep warm, So keep warm     And take some heart 
e|------------------------------------------------| 
B|------------------------------------------------| 
G|-----------------------9---------9--------------| 
D|---11---9-11-11---9-11---11-9-11---11-9-11------| 
A|------12--------12------------------------------| 
E|------------------------------------------------| 

  |                          | 
   at being born at quite so young  You can learn to  
e|------------------------------------------------| 
B|------------------------------------------------| 
G|-----------------------9---------9--------------| 
D|---11---9-11-11---9-11---11-9-11---11-9-11------| 
A|------12--------12------------------------------| 
E|------------------------------------------------| 

|                                  | 
talk and learn to walk in your own time 
e|------------------------------------------------| 
B|------------------------------------------------| 
G|-----------------------9---------9--------------| 
D|---11---9-11-11---9-11---11-9-11---11-9-11------| 
A|------12--------12------------------------------| 
E|------------------------------------------------| 

You're so young... 

7:26 

First Guitar: 

e|----------------------------------------------------| 
B|----------------------------------------------------| 
G|----14-14-14-14-14-14-14-14-13-13-13-13-13-13-13-13-| 
D|----14-14-14-14-14-14-14-14-13-13-13-13-13-13-13-13-| 
A|----12-12-12-12-12-12-12-12-11-11-11-11-11-11-11-11-| 
E|----------------------------------------------------| 

Second Guitar: 

e|------------------------------------------------| 
B|------------------------------------------------| 
G|-----------------------9---------9--------------| 
D|---11---9-11-11---9-11---11-9-11---11-9-11------| 
A|------12--------12------------------------------| 
E|------------------------------------------------| 

7:38 

Drums Stop 

First Guitar: 
e|---------------------| 
B|--------12-----------| 
G|-------------14------|x1 
D|---14-------------14-|x1 
A|---------------------| 
E|---------------------| 

e|------------| 
B|---12-------| 
G|------14----| 
D|---------14-| 
A|------------| 
E|------------| 


Second Guitar: 

e|---------| 
B|---------| 
G|---------| 
D|----7----| 
A|----7----| 
E|----5----| 

Bass: 

G|--------------------------------------------------------------------| 
D|--------------------------------------------------------------------| 
A|--0-0-0-0-0-0-0-0-0-7-7-7-7-7-7-7-7-5-5-5-5-5-5-5-5-0-0-0-0-0-0-0-0-| 
E|--------------------------------------------------------------------| 

G|--------------------------------------------------------------------| 
D|--------------------------------------------------------------------| 
A|--0-----------------7---------------5---------------0---------------| 
E|--------------------------------------------------------------------| 


End 

************************************ 

| /   slide up 
| \   slide down 
| h   hammer-on 
| p   pull-off 
| ~   vibrato 
| +   harmonic 
| x   Mute note 
| b   Bend 
| pb  Pre-bend 
| br  Bend release 
| pbr Pre-bend release 
| brb Bend release bend 

************************************