Holiday chords

Wezzer

  			e-mail:[email protected] 

	TUNE DOWN 1/2 STEP! 
	 
					Intro/Verses 

Gb:------------------------------------------ 
Db:------------------------------------------ 
Ab:----------------------------3-3-3--0-3-0-- 
Eb:--11111--2--55555--2222222---------------- 

Gb:-------------------------------------- 
Db:-------------------------------------- 
Ab:------------------111111--3-3-3-0-3-0- 
Eb:--11111--2--55555--------------------- 

					Chorus 

Gb:----------------------------------------------------- 
Db:-----------------------------------------------------	(3X) 
Ab:------------000--666--444--22222--44444--000-666-444- 
Eb:--555555--------------------------------------------- 

Gb:------------------------ 
Db:------------------------ 
Ab:------------------------ 
Eb:--111111--555555-------- 

					Bridge 

Gb:------------------------- 
Db:-----2-3----------------- 
Ab:--5--------------1-2--5-- 
Eb:---------3-5--5----------
    	

Top songs from Wezzer