Only in Dreams chords

Wezzer

  			e-mail:[email protected] 


RIFF 1: 

Gb|---------------------------------------| 
Db|-------0h2-2-2-2-2p0-----------0-0-----| 
Ab|-2-2-2---------------0-0-0-0-0-----3-3-| 
Eb|---------------------------------------| 

RIFF 2: 

Gb|---------------------------------------| 
Db|-------0h2-2-2-2-2p0-----------0-0---0-| 
Ab|-2-2-2---------------0-0-0-0-0-----3---| 
Eb|---------------------------------------| 

Chorus: 

Gb|---------------------------------| 
Db|---------------------------------| 
Ab|-2-2-0-----------3-3-2-0-0-0-0-0-|x2 
Eb|-------3-3-3-3-3-----------------| 

Gb|---------------------------------|------------------------| 
Db|---------------------------------|------------------------| 
Ab|-------1-1-1-1-1-------3-3-3-3-3-|-2-2-0---------3-3-4-5--| 
Eb|-1-1-1-----------3-3-3-----------|-------3-3-3-3----------| 

Chorus 2: 

Gb|-----------------------------------| 
Db|-----------------------------------| 
Ab|-2-2-2-2/7-7-7-7-7-0-0-0-0-5-5-3-3-| 
Eb|-----------------------------------| 

BRIDGE? (i don't know what you'd call it) 

Gb|-----------------------------------------------------------------| 
Db|-----------------------------------------------------------------| 
Ab|-2-2-2-2-2-2-2-2-7-7-7-7-7-7-7-7-0-0-0-0-0-0-0-0-5-5-5-5-3-3-3-3-| 
Eb|-----------------------------------------------------------------| 

OUTRO: 

Gb|-----------------------------------------| 
Db|-------0h2-2-2-2-2p0-----------0-0-------| 
Ab|-2-2-2---------------0-0-0-0-0-----3-3---| 
Eb|---------------------------------------3-| 


RIFF 1 (x3) 
RIFF 2 
RIFF 1 (x3) 
RIFF 2 
RIFF 1 (x3) 
RIFF 2 
RIFF 1 (x3) 
RIFF 2 
Chorus 
RIFF 1 (x5) 
RIFF 2 
RIFF 1 (x3) 
RIFF 2 
Chorus 
RIFF 1 (x4) 
Chorus 2 (x8) 
(rest) 
RIFF 1 (x6) 
BRIDGE (x14) 
Chorus 2 (x8) 
RIFF 1 (x3) 
OUTRO
    	

Top songs from Wezzer