Breeding Violence chords

Whitechapel

  			
Intro(x2) 
E|--------5--------------------------------5-----------------------------| 
B|--------6--------------------------------6-----------------------------| 
G|--------9--------------------------------9-----------------------------| 
D|-----------------------------------------------------------------------| 
A|-----------------------------------------------------------------------| 
E|-----------------------------------------------------------------------| 
A|-2b-1-1---1-1-1-1--1--1-1-1-1-2b2b--1-11---1-11--2p0-00-3p0-00-4p0-000-| 
      . .   . . . .  .  . . . .       . ..   . ..      ..     ..     ... 
E|------------------------5-5---------------------------------| 
B|------------------------6-6---------------------------------| 
G|------------------------9-9---------------------------------| 
D|------------------------------------------------------------| 
A|-1-1-4-1-1-----1-1--1-1-----1-1-4-1-1-----------------------| 
E|-1-1-4-1-1-----1-1--1-1-----1-1-4-1-1-----------------------| 
A|-1-1-4-1-1-----1-1--1-1-----1-1-4-1-1--2p0-00-3p0-00-4p0----| 
   . .   . .     . .  . .     . .   . . 



Riff I(x2) 
E|-----------------------------------------------------------------------| 
B|-----------------------------------------------------------------------| 
G|-----------------------------------------------------------------------| 
D|-----------------------------------------------------------------------| 
A|-----------------------------------------------------------------------| 
E|-----------------------------------------------------------------------| 
A|-0-0-0-0-0-5b-0-0--0--0-0-5b-0-0--0-0-0-0-0-4b-0-0--0--0-0--4b-0-0-----| 
   . . . . .    . .  .  . .    . .  . . . . .    . .  .  . .     . . 

Riff II 
E|----------------------------------------------------------------------| 
B|----------------------------------------------------------------------| 
G|----------------------------------------------------------------------| 
D|----------------------------------------------------------------------| 
A|-1--1111----1--1111----1-111-4-1-1-1111--1-111-4-1--1--------1--------| 
E|-1--1111----1--1111----1-111-4-1-1-1111--1-111-4-1--1--------1--------| 
A|-1--1111----1--1111----1-111-4-1-1-1111--1-111-4-1--1-111111-1-111111-| 
      ....       ....      ...     . ....    ...        ......   ...... 
E|-----------------------------------------------------| 
B|-----------------------------------------------------| 
G|-----------------------------------------------------| 
D|-----------------------------------------------------| 
A|-1-4-1--------1--------1-1-1-4-----------------------| 
E|-1-4-1--------1--------1-1-1-4-----------------------| 
A|-1-4-1-111111-1-111111-1-1-1-4-----------------------| 
         ......   ......   . 

Riff III(x2) 
E|-----------------------------------------------------------------| 
B|-----------------------------------------------------------------| 
G|----------8--------------9--------------8--------------11-12-----| 
D|-9h10p9h10-9h10p9h10p9h10-9h10p9h10p9h10-9h10p9h10p9h10--9--9----| 
A|-----------------------------------------------------------------| 
E|-----------------------------------------------------------------| 
A|-----------------------------------------------------------------| 

Riff IV 
E|------------------------------------------------------------| 
B|------------------------------------------------------------| 
G|------------------------------------------------------------| 
D|------------------------------------------------------------| 
A|-1--1-11111--1-11111-11---1--------1-11111--1-11111-11-1----| 
E|-1--1-11111--1-11111-11---1--------1-11111--1-11111-11-1----| 
A|-1--1-11111--1-11111-11---1-2fb2fb-1-11111--1-11111-11-1----| 
      . .....  . ..... **            . .....  . ..... ** 

(Riff III) 
(Intro) 

Solo 
E|----------------------------------------------------------------------------| 
B|-------------------------------------------------------------------20t17t14-| 
G|-----------------/12-----15--12---------18-15-13--13h15h17p15p13------------| 
D|10h12h13p12p10h12-----10---15--15-13-10--------------------------15---------| 
A|----------------------------------------------------------------------------| 
E|----------------------------------------------------------------------------| 
A|----------------------------------------------------------------------------| 

E|-------------------------------------------------------------------| 
B|-19h22p19\16h19p16\13h16p13\10h13p10\8h10p8br9---------------------| 
G|-------------------------------------------------------------------| 
D|-------------------------------------------------------------------| 
A|-------------------------------------------------------------------| 
E|-------------------------------------------------------------------| 
A|-------------------------------------------------------------------| 

Riff V(x2) 
E|---------------------------------------------------------------------------| 
B|---------------------------------------------------------------------------| 
G|---------------------------------------------------------------------------| 
D|---------------------------------------------------------------------------| 
A|-7----7-----77----7-----77----7----10---10----1010---10----1010----10------| 
E|-5----5-----55----5-----55----5----8----8-----8-8----8-----8--8----8-------| 
A|-3-33-3-33--33-33-3-33--33-33-3-33-6-66-6-66--6-6-66-6-66--6--6-66-6-66----| 
     ..   ..     ..   ..     ..   ..   ..   ..      ..   ..       ..   .. 

Riff VI(x2) 
E|---------------------------------------------------------------------------| 
B|---------------------------------------------------------------------------| 
G|---------------------------------------------------------------------------| 
D|---------------------------------------------------------------------------| 
A|---------------------------------------------------------------------------| 
E|-5h6-5-5h6-5-5h6p5h8--5h6-5-5h6-5-5h6p5h8----------------------------------| 
A|---------------------------------------------------------------------------| 
   . . . . . . . . . .  . . . . . . . . . .  (Give this part a very light Palm Mute) 
(cont.) 
E|---------------------------------------------------------------------------| 
B|---------------------------------------------------------------------------| 
G|---------------------------------------------------------------------------| 
D|---------------------------------------------------------------------------| 
A|--7h8-7-7h8-7-7h8p7h10--7h8-7-7h8-7-7h8p7h10-------------------------------| 
E|---------------------------------------------------------------------------| 
A|---------------------------------------------------------------------------| 

(cont.) 
E|---------------------------------------------------------------------------| 
B|---------------------------------------------------------------------------| 
G|---------------------------------------------------------------------------| 
D|---------------------------------------------------------------------------| 
A|-10h11-10-10h11p10h13-10h11-10-10h11p10h13---------------------------------| 
E|---------------------------------------------------------------------------| 
A|---------------------------------------------------------------------------| 

(Riff I) 

Riff VII 
E|---------------------------------------------------| 
B|---------------------------------------------------| 
G|---------------------------------------------------| 
D|---------------------------------------------------| 
A|---------------------------------------------------| 
E|-6--9--6-9--6--6-9---6----9--12--9-12--9--9-12--9--| 
A|--00-00---00-00---00-------00--00----00-00----00---| 
    .. .    .. .    ..       ..  .     .. .     .. 
E|-----------------------------------------| 
B|-----------------------------------------| 
G|-----------------------------------------| 
D|-----------------------------------------| 
A|-----------------------------------------| 
E|-----------------------------------------| 
A|-1-00-4-00-1-4-00-1-00-1-4-00-1--(x3)----| 

Outro 
E|-5-| 
B|-6-| 
G|-9-| 
D|---| 
A|---| 
E|---| 
A|---|