Diggs Road chords

Whitechapel

Key: 

  			

NOTE: I made this for 6 stringers. I know the original guitars have like 400 strings and are  
in standard tuning (or drop G tuning, something like that). 
Also, there may be some parts missing, I'm doing my best to include all riffs, so in the future I may update. 
This is the first tab I ever did, and since nobody made one for this song I decided I could try.Enjoy. 

Tuning: Drop C 


Intro Riff: 
|------------------------------------------------------------------------------------------| 
|------------------------------------------------------------------------------------------| 
|------------------------------------------------------------------------------------------| 
|---------------------------------------------------------------13-12~---------------------|(x2) 
|-12-12--13-13--10-12-0----3-3--4-4--1-3-0----12-12--13-13--10-----------8-8--7-7--5-7-4~--| 
|------------------------------------------------------------------------------------------| 

The epicly awesome distorted intro riff where the drums kick in: (Guitar 1) 
|##------------------------------------------------------------------------------------------|\ 
|#-------------------------------------------------------------------------------------------| | 
|#-2--------------------------------------5---6---3--5---------------------------------------| | 
|#-2---2--222----------2---22222----------5---6---3--5--2---22222----------------------------| | 
|#-0---0--000----------0---00000----------3---4---1--3--0---00000----------------------------| | 
|##------------------------------------------------------------------------------------------| | 
       x  xxx          x   xxxxx                        x   xxxxx                              | 
                                                                                               | 
|------------------------------------------------------------------------------------------##| | 
|-------------------------------------------------------------------------------------------#| | 
|-2-----------------------------------------------------------------------------------------#| | 
|-2---2--22222----------2222222-----2222-3--2--0--5--3--2-3--0------------------------------#| | 
|-0---0--00000----------0000000-----0000-3--2--0--5--3--2-3--0---------REPEAT-THIS----------#| | 
|----------------------------------------3--2--0--5--3--2-3--0-----------------------------##|/ 
      x  xxxxx          xxxxxxx     xxxx 

This is played during the breaks in the awesome intro riff: (Guitar 2) 
|##------------------------------------------------------------------------------------------|\ 
|#-------------------------------------------------------------------------------------------| | 
|#----------------------------------------------------------------7/10-9~---9----------------| | 
|#----------------------------------------------------------------------------(x22)----------| | 
|#------------------0---------------------------------------------5/8--7~---7----------------| | 
|##-------------8\5--------------------------------------------------------------------------| | 
                                                                                               | 
|------------------------------------------------------------------------------------------##| | 
|-------------------------------------------------------------------------------------------#| | 
|---------------------------------------12------------12/15-14~-----------------------------#| | 
|------------------------------------------(x6)---------------------------------------------#| | 
|---------------------------------------10------------10/13-12~--------REPEAT-THIS----------#| | 
|------------------------------------------------------------------------------------------##|/ 


--PRE-VERSE COMING SOON-- (The "SUICIDE.....IT BRINGS ME LIFE" part) 

Verse: ("IT'S THE ONLY WAY.....") (Guitar 1) 
|----------------------|----------------------|----------------------| 
|--------=A1=----------|---------=B1=---------|---------=B2=---------| 
|----------------------|----------------------|----------------------| 
|--7\---7br8-5--7-5-7--|--7-7--8-3-2-3-5-3-5--|--7-7--8-3-2-3-5-3\2--| 
|--7\---7br8-5--7-5-7--|--7-7--8-3-2-3-5-3-5--|--7-7--8-3-2-3-5-3\2--| 
|--7\---7br8-5--7-5-7--|--7-7--8-3-2-3-5-3-5--|--7-7--8-3-2-3-5-3\2--| 
                          x x    x x x x         x x    x x x x 

|---------------------------|----------------------------------------| 
|------------=B3=-----------|-----------------=A2=-------------------| 
|---------------------------|----------------------------------------| 
|--7-7--10--8-10-8-10-8-10--|--7\---7br8-5--7-5--10------12----------| 
|--7-7--10--8-10-8-10-8-10--|--7\---7br8-5--7-5--10-(x6)-12-(x6)-----| 
|--7-7--10--8-10-8-10-8-10--|--7\---7br8-5--7-5--10------12----------| 
   x x      x xx x xx 

                                 Verse Order: A1-B1-A1-B2-A1-B3-A2 


Tear Inducing Chorus Riff: (Guitar 2) 
|--------------------------------------------------------------------------------------------|\ 
|--------------------------------------------------------------------------------------------| | 
|-------7-/9--7h9p7-10--9--7~--7br9--5--------------------/7----5~---4h5p4-----4h5---5~------| | 
|----7~---------------------------------7--------------------7-------------5~-------(3)------| | 
|--------------------------------------------------------------------------------------------| | 
|--------------------------------------------------------------------------------------------| | 
                                                                                               | 
|--------------------------------------------------------------------------------------------| | 
|--------------------------------------------------------------------------------------------| | 
|-------7-----5~--4h5p4--/7--5--45454-------2-----4--5---4h5p4p2------2----4~----------------| | 
|---/7-----7--------------------------5-3~----3-----3--3---------2~-----2-(2)----------------| | 
|--------------------------------------------------------------------------------------------| | 
|--------------------------------------------------------------------------------------------|/ 

I'm not sure about the Guitar 1 part during the Chorus, but they use these power chords: 
|-------------------------------------------------------| 
|--????????????-----------------------------------------| 
|-------------------------------------------------------| Guitar 1 
|--7--5--7--3-2------------------------------6-6-6-6-6-7| 
|--7--5--7--3-2----AND THIS BEFORE THE Solo:-6-6-6-6-6-7| 
|--7--5--7--3-2------------------------------6-6-6-6-6-7| 


SOLO 1: 
|---------------------------------------------------------------------------------------------| 
|--10---------10----10------------------------------------------------------------------------| 
|--12b14(3x)--12pbr-12b14-12-10-9-7--7-6~---7-9-9h10-9-7--/12--10-9---10-9-/14-12h14p12-10-9--| 
|---------------------------------------------------------------------------------------------| 
|---------------------------------------------------------------------------------------------| 
|---------------------------------------------------------------------------------------------| 

|------------------------------------MODERATELY-FAST------------------------------------------| 
|---------------------------------------------------------------------------------------------| 
|---------------------------------------------------12-------12-14-15-14-12-------------------| 
|-------------12-------12-14-15-14-12------12-14-15----14-15----------------15----------------| 
|----12-13-16----13-16----------------16------------------------------------------------------| 
|---------------------------------------------------------------------------------------------| 

|---------------------------------------------------13-------13-15-17-15-13-------------------| 
|------------14-------14-15-17-15-14-------14-15-17----15-17----------------17----------------| 
|----12-14-15----14-15----------------15------------------------------------------------------| 
|---------------------------------------------------------------------------------------------| 
|---------------------------------------------------------------------------------------------| 
|---------------------------------------------------------------------------------------------| 

|----(21-17-18-17-22-17-18-17)------22--22b24-24-----17h18p17----17---------------------------| 
|-------------------------------------------------------------------20----20-18-17------------| 
|-----REPEAT-THIS-(3x)^^^^^^--------------------------------------------------------19b21~----| 
|-----EVEN-FASTER-THIS-TIME-------------------------------------------------------------------| 
|---------------------------------------------------------------------------------------------| 
|---------------------------------------------------------------------------------------------| 


=====================================MORE=COMING=SOON========================================== 


************************************ 

| /   slide up 
| \   slide down 
| h   hammer-on 
| p   pull-off 
| ~   vibrato 
| +   harmonic 
| x   Mute note 
| b   Bend 
| pb  Pre-bend 
| br  Bend release 
| pbr Pre-bend release 
| brb Bend release bend 
| *   Tremolo picking 

************************************