Breathe In chords

Yodelice

  			

e|--------------------| 
B|--------------------| 
G|--------------------|  (3x) 
D|------0------0------| 
A|--------------------| 
E|-0h2-----2----------| 


e|--------------------| 
B|--------------------| 
G|-------0-------0----|  
D|----0--------0------| 
A|-1--------0---------| 
E|--------------------| 


e|--------------------| 
B|--------------------| 
G|--------------------|  (3x) 
D|------0------0------| 
A|--------------------| 
E|-0h2-----2----------| 


e|--------------------| 
B|--------------------| 
G|-------0-------0----|  
D|----0--------0------| 
A|-1--------0---------| 
E|--------------------| 


e|-----------------------------| 
B|-----------------------------| 
G|----------------------0-----0|  
D|----2-----2-----3------------| 
A|-----------------------------| 
E|-0-----0-----0-----0-----0---| 

e|-----------------------------| 
B|-----------------------------| 
G|-----------------------------|  
D|----3-----3-----2-----2----0-| 
A|-1-----1-----1-----1-----1---| 
E|-----------------------------|