Lady In Black chords

Yodelice

Key: 

  			Vous avez au dessus de la tab les chords de la melodie 
Mais vous pouvez aussi rester sur ces accords pour les arpeges 
sa sonne bien aussi. 

F E4   E   E7 
1   0    0    0 
1   0    0    0 
2   2    1    1 
3   2    2    0 
3   2    2    2 
1   0    0    0 


F             E *  E      E7         F 
1--1--1--1-----0--0--0--0--0--0--0--0--1--1--1--1---| 
-1--1--1--1-----0--0--0--0--0--0--0--0--1--1--1--1--| 
--2--2--2--2-----1--1--1--1--1--1--1--1--2--2--2--2-|       (X2) 
----------------------------------------------------| 
----------------------------------------------------| 
----------------------------------------------------|       * : E4 en melodique 

F**          E4          E  
1--1--1--1---0--0--0--0---0--0--0--0---| 
-1--1--1--1---0--0--0--0---0--0--0--0--| 
--2--2--2--2---2--2--2--2---1--1--1--1-| 
---------------------------------------|     *: Am en melodique) 
---------------------------------------| 
---------------------------------------| 
---------------------------------------| 

 Em   Am            Em   C       Bm    Am 
-0-0---0-0-0-0-------0-0---0-0-0-0---2-2---0-0-0-0-------------| 
-0-0---1-1-1-1-------0-0---1-1-1-1---3-3---1-1-1-1-------------| 
-0-0---2-2-2-2-(x2)--0-0---0-0-0-0---4-4---2-2-2-2-------------|   (x2) 
-2-2---2-2-2-2-------2-2---2-2-2-2---4-4---2-2-2-2-------------| 
-2-2---0-0-0-0-------2-2---3-3-3-3---2-2---0-0-0-0-------------| 
-0-0---0-0-0-0-------0-0---0-0-0-0---2-2---0-0-0-0-------------| 



Pont : 
---------------------------------------------| 
1s5-5(Environ 13 fois)--3-1-0----------------| 
---------------------------------------------| 
---------------------------------------------| 
---------------------------------------------| 
---------------------------------------------|