Murder On The Airwaves chords

Zebrahead

  			Zebrahead-Call your friends-Murder on the airwaves 

Half step down 

All comments with improvements will be fully appreciated. 

Intro Guitar 1 
eb------------------------------------------------| 
Bb-------13-15-17-15-13---------13-15-17-15-13----| 
Gb-14-14----------------14---14-------------------| 
Db------------------------------------------------| 
Ab------------------------------------------------| 
Eb------------------------------------------------| 

eb------------------------------------------------| 
Bb-------13-15-17-15-13--18-18-17-17-15-15-17-17--| 
Gb-14-14------------------------------------------| 
Db------------------------------------------------| 
Ab------------------------------------------------| 
Eb------------------------------------------------| 

Guitar 2 

eb---------------------------------------------------------------| 
Bb---------------------------------------------------------------| 
Gb---------------------------------------------------------------| 
Db--7-7--------5-5-------10101010-5-5-5-5------------------------| 
Ab--7-7--------5-5-------10101010-5-5-5-5------------------------| 
Eb--5-5--------3-3-------8-8-8-8--3-3-3-3------------------------| 

eb---------------------------------------------------------------| 
Bb---------------------------------------------------------------| 
Gb-------7-7-7-7-10101010----------------------------------------| 
Db--7-7--7-7-7-7-10101010--5-5-10101010-5-5-5-5------------------| 
Ab--7-7--5-5-5-5-8-8-8-8---5-5-10101010-5-5-5-5------------------| 
Eb--5-5--------------------3-3-8-8-8-8--3-3-3-3------------------| 

Guitar 3 slide up the neck 

eb---------------------------------------------------------------| 
Bb---------------------------------------------------------------| 
Gb---------------------------------------------------------------| 
Db--\\\\\\\\\\\\\\\\\\\\\\\\\\\\\\\\\\\\\\\\\\\\\\\\\\\\\\\\\\\\\ 
Ab--\\\\\\\\\\\\\\\\\\\\\\\\\\\\\\\\\\\\\\\\\\\\\\\\\\\\\\\\\\\\\ 
Eb--\\\\\\\\\\\\\\\\\\\\\\\\\\\\\\\\\\\\\\\\\\\\\\\\\\\\\\\\\\\\\ 

Guitar 2 (after two bars of intro) 


eb---------------------------------------------------------------| 
Bb---------------------------------------------------------------| 
Gb------------5-5-7-7-xxxx-7-7-----------------------------------| 
Db--7-7-xxxx--5-5-7-7-xxxx-7-7--5-5-xxxx-5-5--10101010-5-5-5-5---| 
Ab--7-7-xxxx--3-3-5-5-xxxx-5-5--5-5-xxxx-5-5--10101010-5-5-5-5---| 
Eb--5-5-xxxx----------xxxx------3-3-xxxx-3-3--8-8-8-8--3-3-3-3---| 

Guitar 1 

After 4 times on intro hold this. 

eb------------------------------------------------| 
Bb------------------------------------------------| 
Gb--14--------------------------------------------| 
Db------------------------------------------------| 
Ab------------------------------------------------| 
Eb------------------------------------------------| 

Guitar 2 *(artificial harmonics (clipping the string with your finger when you play the  
note)) Yeah bracket inception. 

eb-------------------------------------------------------------------------| 
Bb-------------------------------------------------------------------------| 
Gb-------------------------------------------------------------------------| 
Db-------------------------------------------------------------------------| 
Ab------------------------------------7-7----------------------------------| 
Eb--5-5-5-5-5-5-8-8-10-10-10-10-10-10-----3-3-3-3-3-3-5-5-*8p0*8p0*7p0*7p0-| 

eb------------------------------------------------------------------------| 
Bb------------------------------------------------------------------------| 
Gb------------------------------------------------------------------------| 
Db------------------------------------------------------------------------| 
Ab------------------------------------7-7---------------------------------| 
Eb--5-5-5-5-5-5-8-8-10-10-10-10-10-10-----3-3-3-3-3-3-5-5-8-8-8-8-7-7-7-7-| 

Guitar 1 

eb----------------20-----------------------------------------| 
Bb------------20--x---20-------------------------------------| 
Gb-14-----19--x---17--x---14--19--12-------------------------| 
Db-x------x---17------17--x---x---x----\\\\\\\\\\\\\\\\\\\\\-| 
Ab-12-----17--------------12--17--10---\\\\\\\\\\\\\\\\\\\\\-| 
Eb-------------------------------------\\\\\\\\\\\\\\\\\\\\\-| 

Guitar 2 

eb----------------------------------------------------------| 
Bb----------------------------------------------------------| 
Gb-------7-7-----------------------7-7----------------------| 
Db--7-7--7-7--5-5--1010--5-5--7-7--7-7--5-5-\\\\\\\\\\\\\\\-| 
Ab--7-7--5-5--5-5--1010--5-5--7-7--5-5--5-5-\\\\\\\\\\\\\\\-| 
Eb--5-5-------3-3--8-8---3-3--5-5-------3-3-\\\\\\\\\\\\\\\-| 

Guitar 1 and 2. Chorus. (play 16 of each power chord) 

eb--------------------------------------------------| 
Bb--------------------------------------------------| 
Gb----------------10-------------------7------------| 
Db--7-------------10-------10----------7------------| 
Ab--7-------------8--------10----------5------------| 
Eb--5----------------------8------------------------| 

Guitar 2 bridge 

eb---------------------------------------------------------------------| 
Bb---------------------------------------------------------------------| 
Gb---------------------------------------------------------------------| 
Db---------------------------------------------------------------------| 
Ab---------------------------------------------------------------------| 
Eb-5-5-5-0-5-5-5-0-5-5-5-0-5-5-5-0-4-4-4-0-4-4-4-0-4-4-4-0-4-4-4-0-----| 

eb---------------------------------------------------------------------| 
Bb---------------------------------------------------------------------| 
Gb---------------------------------------------------------------------| 
Db---------------------------------------------------------------------| 
Ab---------------------------------------------------------------------| 
Eb-3-3-3-0-3-3-3-0-3-3-3-0-3-3-3-0-1-1-1-0-1-1-1-0-8-8-8-8-10-10-10-10-| 

Guitar 1 bridge 

eb-----------------------------------------------------------------------| 
Bb-20p020p013p013p015p015p017p017p0--------------------------------------| 
Gb-----------------------------------------------------------------------| 
Db-----------------------------------------------------------------------| 
Ab-----------------------------------------------------------------------| 
Eb-----------------------------------------------------------------------| 

eb---------------------------------------------------------------------| 
Bb-12p012p012p012p013p013p010p010p0------------------------------------| 
Gb---------------------------------------------------------------------| 
Db---------------------------------------------------------------------| 
Ab---------------------------------------------------------------------| 
Eb---------------------------------------------------------------------| 

Guitar 1 Solo 
                     *  *  *  *  *  *  *  *  *  * 
eb--/15-/17-/19-/20--20-19-17-15-19-17-15-13-12 10-/15-/17-/19-/20---------| 
Bb-------------------------------------------------------------------------| 
Gb-------------------------------------------------------------------------| 
Db-------------------------------------------------------------------------| 
Ab-------------------------------------------------------------------------| 
Eb-------------------------------------------------------------------------| 

eb-22-20-19-17-20-19-17-15-20p19p1720p19p17-19p17p1519p17p15-----------| 
Bb---------------------------------------------------------------------| 
Gb---------------------------------------------------------------------| 
Db---------------------------------------------------------------------| 
Ab---------------------------------------------------------------------| 
Eb---------------------------------------------------------------------| 

eb-17p15p1317p15p13-15p13p1215p13p12-------------------------------------| 
Bb-----------------------------------10~---------------------------------| 
Gb-----------------------------------------------------------------------| 
Db-----------------------------------------------------------------------| 
Ab-----------------------------------------------------------------------| 
Eb-----------------------------------------------------------------------| 

Guitar 2 Play these chords under the solo (same as Chorus) 

eb--------------------------------------------------| 
Bb--------------------------------------------------| 
Gb----------------10-------------------7------------| 
Db--7-------------10-------10----------7------------| 
Ab--7-------------8--------10----------5------------| 
Eb--5----------------------8------------------------| 

Guitar 2 

eb-------------------------------------------------------------------------| 
Bb-------------------------------------------------------------------------| 
Gb-------------------------------------------------------------------------| 
Db-------------------------------------------------------------------------| 
Ab------------------------------------7-7----------------------------------| 
Eb--5-5-5-5-5-5-8-8-10-10-10-10-10-10-----3-3-3-3-3-3-5-5-*8p0*8p0*7p0*7p0-| 

With wah pedal^^^^^^^^^^^^^^^^^^^^^^^^^^^^^^^^^^^^^^^^^^^^^^^^^^^^^^^^^^^^ 

End on this. 
eb------------------------------------------------------------------------| 
Bb------------------------------------------------------------------------| 
Gb------------------------------------------------------------------------| 
Db-7~---------------------------------------------------------------------| 
Ab-7~---------------------------------------------------------------------| 
Eb-5~---------------------------------------------------------------------| 


Thankyouuu :3