Running With Wolves chords

Zebrahead

  			
Tunning: Eb Ab Db Gb Bb eb

intro note (whammy 1 octave fun) 
gb|-9-| 

main riff 
eb|--------------------------------8----------------------| 
bb|--10-10p8-8----------10-10p8-8-8-10---10-10p8-8--------| 
gb|-9-------9-9-7-5-7--9-------9-9------9-------9-9-7-5-7-| 
db|-------------------------------------------------------| 
ab|-------------------------------------------------------| 
eb|-------------------------------------------------------| 

brk1 
eb|--------------| 
bb|--------------| 
gb|--5--7--9--11-| 
db|--5--7--9--11-| 
ab|--3--5--7---9-| 
eb|-0--0--0--0---| 

brk2 
eb|--------------------| 
bb|--------------------| 
gb|-55-77-99-1111-1111-| 
db|-55-77-99-1111-1111-| 
ab|-33-55-77--9-9--9-9-| 
eb|--------------------| 
    du du du  d u  d d 

Danny McBride (tremolo picking listen to the rhythm) 
eb|------------------------------------| 
bb|-101010-88-1010-10101010-13-10-8-10-| 
gb|------------------------------------| 
db|------------------------------------| 
ab|------------------------------------| 
eb|------------------------------------| 

Chorus 
eb|-----------------------| 
bb|-----------------------| 
gb|-2---5-------5555-7777-| 
db|-2x8-5x8-5---5555-7777-|x2 
ab|-0---3---5x8-3333-5555-| 
eb|---------3-------------| 

eb|-----------------| 
bb|-----------------| 
gb|-2---5-----------| 
db|-2x8-5x8-2---5---| 
ab|-0---3---2x8-5x8-| 
eb|---------0---3---| 

eb|--------------| 
bb|--------------| 
gb|-2---5--------| 
db|-2x8-5x8-2----| 
ab|-0---3---2x16-| 
eb|---------0----| 

solo 
eb|-----------------------------------| 
bb|---------------13-15-17-15-13------| 
gb|-14x14x14x14x14--------------14-12-| 
db|-----------------------------------| 
ab|-----------------------------------| 
eb|-----------------------------------| 

eb|-----------------------15-14-13-12-| 
bb|---------------13-15-17------------| 
gb|-14x14x14x14x14--------------------| 
db|-----------------------------------| 
ab|-----------------------------------| 
eb|-----------------------------------| 

eb|---------------------------| 
bb|-/15-13----/15-13-15-15/17-| 
gb|------14-12----------------| 
db|---------------------------| 
ab|---------------------------| 
eb|---------------------------| 

eb|-------------------------------| 
bb|------15b-15r-13---------------| 
gb|-12-14----------14-13-12-13-14-| 
db|-------------------------------| 
ab|-------------------------------| 
eb|-------------------------------| 

rhythm solo 
eb|-----------------------| 
bb|-----------------------| 
gb|-2---5---2---5555-7777-| 
db|-2x8-5x8-2x8-5555-7777-| 
ab|-0---3---0---3333-5555-| 
eb|-----------------------| 

eb|-----------------------| 
bb|-----------------------| 
gb|-2---5-------5555-7777-| 
db|-2x8-5x8-5---5555-7777-| 
ab|-0---3---5x8-3333-5555-| 
eb|---------3-------------| 

eb|-----| 
bb|-----| 
gb|-2---| 
db|-2---| 
ab|-0---| 
eb|-----| 

verse 3 
eb|------------------| 
bb|------------------| 
gb|--5--7--9--11---2-| 
db|--5--7--9--11---2-| 
ab|--3--5--7---9---0-| 
eb|-0--0--0--0-------| 

Chorus (skip the first part of it) 

verse riff 

ending 
eb|------------------| 
bb|------------------| 
gb|--5--7--9--11---2-| 
db|--5--7--9--11---2-| 
ab|--3--5--7---9---0-| 
eb|-0--0--0--0-------|