The Walking Dead chords

Zebrahead

  			Tuning : Half Step Down 

*  = Natural harmonics 
b  = bend 
x  = Dead note 
() = Ghost notes 
\  = slide 


Intro : 

Guitar 1 (rythm) 

e|---0----let ring------- 
B|----0---let ring------- 
G|-----4--let ring------- 
D|-----------------------  X2 
A|----------------------- 
E|----------------------- 



Guitar 2 (lead) 

e|------12*---12*-------- 
B|---------12*----12*---- 
G|----------------------- 
D|-----------------------   X1   
A|----------------------- 
E|----------------------- 


(Then pickslide) 


Main riff : 


Guitar 1 : 

e|----------------------------------- 
B|----------------------------------- 
G|-----------4--------5-------------- 
D|--2--------4-(X8)---5-(X8)---5-----  X2 
A|--2-(X8)---2--------3--------5-(X8)      
E|--0--------------------------3----- 


Guitar 2 : 

e|----------------------------------------------------------12 
B|--12-----12--13--12-----12--15--12------12--13--12----12---- 
G|------------------------------------------------------------ 
D|------14-------------14-------------14-------------14-------   X2 
A|------------------------------------------------------------ 
E|------------------------------------------------------------ 


Verse (1 & 2) 


Guitar 1 : 

e|(0)--------- 
B|(0)--------- 
G|---let ring- 
D|-2---------- 
A|-2---------- 
E|-0---------- 


Guitar 2 (crunch) : 

e|------x-x--3-x-x-3-x-3---2-2------- 
B|------x-x--5-x-x-5-x-5---5-2------- 
G|------x-x--4-x-x-4-x-4---4-4------- 
D|-----------------------------------  X2   
A|----------------------------------- 
E|----------------------------------- 


Chorus : 

Guitar 1 : Same as main riff 


Guitar 2 :  

It's something like that (It may be hard to hear it) 

e|------------------------------------------------ 
B|----12---------12---------12---------14-----14-- 
G|--------12---------14--------14---------12------ 
D|------------14---------14--------12------------- 
A|------------------------------------------------ 
E|------------------------------------------------ 



Back to main riff and verse 


Solo : 


I couldn't write down the exact notes, but you can figure it out 
It's a basic pentatonic scale 

e|-----12--------12--15-12----12------------------------------------ 
B|------15b---15-----------15----15--13--15--13-12----12------------ 
G|-------------------------------------------------14----14--12--14b 
D|------------------------------------------------------------------ 
A|------------------------------------------------------------------ 
E|------------------------------------------------------------------ 

tremolo picking : 

e|----12--14--15--14--15--17---15--17--19--17-19-20--19--17--19--17--15 
B|--------------------------------------------------------------------- 
G|--------------------------------------------------------------------- 
D|--------------------------------------------------------------------- 
A|--------------------------------------------------------------------- 
E|--------------------------------------------------------------------- 


e|-----15-15-15-14--12---------------------------------------------- 
B|-----------------------15--13---12-------------------------------- 
G|-------------------------------------14--12--11--12--12b--9------- 
D|------------------------------------------------------------------  (X2) 
A|------------------------------------------------------------------ 
E|------------------------------------------------------------------ 


Bridge (Reach out...) : 

Both guitar : 

e|------------------------------------ 
B|------------------------------------ 
G|--4-4-4-4-4------------------------- 
D|--4-4-4-4-4--Slide for the last time 
A|--2-2-2-2-2-------------------------   
E|------------------------------------ 


Bridge (next part) : 


Guitar 1 (with tremolo effect) 

e|-------------------------------------- 
B|-------------------------------------- 
G|-------4----5---------12---11--14--12- 
D|--2----4----5---5-----12---11--14--12- 
A|--2----2----3---5-----10---9---12--10-  
E|--0-------------3--------------------- 


Guitar 2 : 

(not really sure for this part) 

e|--------------------17----------------------- 
B|--------17------17--------17---15------------ 
G|----16--------------------------------------- 
D|--------------------------------------------- 
A|--------------------------------------------- 
E|--------------------------------------------- 


Back to Chorus and main riff