Heavy Weight chords

Wolfmother

  			Intro: 

E------------------------------| 
B---------------------10h11-10-| 
G--------08--------------------| 
D-10---x-08---10---------------| 
A-10---x-06---10---------------| 
E-08---6------08---------------| 

E------------------------------| 
B------------------------------| 
G--------08--------------------| 
D-10-----08---10---------08h10-| 
A-10---8-06---10---06h08-------| 
E-08---6------08---------------| 

E------------------------------| 
B-------------------10^ST------| 
G--------08---------09^ST------| 
D-10---x-08---10---------------| 
A-10---x-06---10---------------| 
E-08---6------08---------------| 

Verse: 

E------------------------------------------| 
B------------------------------------------| 
G------------------------------------------| 
D-10---10---10---10---10---10---10---10----| 
A-10---10---10---10---10---10---10---10-08-| 
E-08---08---08---08---08---08---08---08-06-| 

E------------------------------------------| 
B------------------------------------------| 
G-10---10---10---10---10---10---10---10----| 
D-10---10---10---10---10---10---10---10----| 
A-08---08---08---08---08---08---08---08-08-| 
E---------------------------------------06-| 

Chrous: 

E----------------------------------------| 
B----------------------------------------| 
G----------------------------------------| 
D-06-06-06-06-06-06-06-06/08-08-08-08----| 
A-06-06-06-06-06-06-06-06/08-08-08-08----| 
E-04-04-04-04-04-04-04-04/06-06-06-06----| 

E----------------------------------------| 
B----------------------------------------| 
G-----------08---------------------------| 
D-10---10---08-10---08---10----06-----08-| 
A-10---10---06-10---08---10----06-----08-| 
E-08---08------08---06---08----04-----06-| 

The solo is a Stockdale classic with lots of fuzz and wah. You could play just about  
anything in the same key (Cmin pent.) and you'd be fine.