Pyramid chords

Wolfmother

Key: 

  			This is an awsome song by a great aussie band 


~ Vibrato 
/ Slide 
b Bend 
h Hammer on 
p Pull off 
* Harmonic 
> Let Ring 

Guitar inrto: 

0.00 
|-------------------| 
|-------------------| 
|-------------------| 
|-------------------| 
|-------------------| 
|-3~----------------| 

Bass intro/ Pre Verse/ Verse: 

0.13 
|------------------------------| 
|------------------------------| 
|------------------------------| 
|-3p0-3p0-3p0-3p0-3p0-3p0-3/6b-| 

Guitar Pre Verse: 

0.26 
|-13-11-10~-13-11-10-------------| 
|--------------------13-11-10-11-| 
|--------------------------------| 
|--------------------------------| 
|--------------------------------| 
|--------------------------------| 

0.33 
|-----------| 
|-10-11-13>-| 
|-----------| 
|-----------| 
|-----------| 
|-----------| 

0.46 
|-13-11-10~-13-11-10-------------| 
|--------------------13-11-10-11-| 
|--------------------------------| 
|--------------------------------| 
|--------------------------------| 
|--------------------------------| 

0.52 
|------------------------------| 
|------------------------------| 
|------------------------------| 
|------------------------------| 
|------------------------------| 
|-3p0-3p0-3p0-3p0-3p0-3p0-3/6b-| 

Guitar Verse (over the top of the bass intro): 

1.08 
|----| 
|----| 
|----| 
|----| 
|----| 
|-6b-| 

1.18 
|------------------------------| 
|------------------------------| 
|------------------------------| 
|------------------------------| 
|------------------------------| 
|-3p0-3p0-3p0-3p0-3p0-3p0-3/6b-| 

1.26 
|----| 
|----| 
|----| 
|----| 
|----| 
|-6b-| 

1.36 
|-13-11-10~-13-11-10-------------| 
|--------------------13-11-10-11-| 
|--------------------------------| 
|--------------------------------| 
|--------------------------------| 
|--------------------------------| 

1.42 
|-----------| 
|-10-11-13>-| 
|-----------| 
|-----------| 
|-----------| 
|-----------| 

1.55 
|-13-11-10~-13-11-10-------------| 
|--------------------13-11-10-11-| 
|--------------------------------| 
|--------------------------------| 
|--------------------------------| 
|--------------------------------| 

Bridge: 

2.02 
|--------------------------------| 
|--------------------------------| 
|--------------------------------| 
|--------------------------------| 
|-------------------------3p1--1-| 
|-3p0-3p0-3p0-3p0-3p0-3p0----h3--| 

|----------------------------------------| 
|----------------------------------------| 
|----------------------------------------| 
|----------------------------------------| 
|-------------------------------10p8---8-| 
|-10p0-10p0-10p0-10p0-10p0-10p0-----h10--| 

|----------------------------------| 
|----------------------------------| 
|----------------------------------| 
|----------------------------------| 
|-------------------------10p8---8-| 
|-8p0-8p0-8p0-8p0-8p0-8p0-----h10--| 

there a bit i can't figure out here but it dont really matter 

Bridge2: 

2.20 
|-----------| 
|-----------| 
|-----------| 
|-5-------3-| 
|-5-------3-| 
|-3-------1-| 

|------------| 
|------------| 
|------------| 
|-8-------10-| 
|-8-------10-| 
|-6-------8--| 

and that basically it except for the solo which i don't know its basically in G 
And just muck around with the G pentonic scale and you can figure it out