Joker and the theif chords

Wolfmother

  			Joker & The Theif - Wolfmother 
 
h-hammer 
/-slide 
 
 
 
 
 
Intro/ Chorus: 
 
|------------------------------| 
|------------------------------| 
|------------0-5h-7h-----------| Repeat as 
|---0-5h-7h--------------------| many times 
|------------------------------| needed 
|------------------------------| 
 
when drum beat starts and it sounds different 
thats the electric organ playing these chords 
D,C,D,C,D,F,G 
 
Verse, repeat until Chorus: 
 
|-------------------------------| 
|-------------------------------| 
|-------------------11-10-11-10-| 
|-12-12-12-12-12-12-12-10-12-10-| x4,then 
|-12-12-12-12-12-12-12-10-12-10-| 
|-10-10-10-10-10-10-10-10-10-10-| 
 
|-------------------------------| 
|-------------------------------| 
|-------------------16-15-16-15-| 
|-15-15-15-15-17-17-17-15-17-15-|  
|-15-15-15-15-17-17-17-15-17-15-| 
|-13-13-13-13-15-15-15-15-15-15-| 
 
Bridge: 
 
|------------------------------------------| 
|------------------------------------------| 
|------------------------------------------|  
|-12-----------------10-----------------12-| x 4,then 
|-12-12-10-9-10-9----10-12-10-9-10-9----12-| 
|-10--------------10-8---------------12-10-| 
 
|-------| 
|-------| 
|-------| 
|-------| 
|-12-14-| 
|-13-15-| 
 
|-------------------------------------------| 
|----14-12-10-12-10-------14-12-10-12-10----| 
|-------------------12-------------------14-| 
|-12-------------------10-------------------| x4,then 
|-12-------------------10-------------------| 
|-10-------------------8--------------------| 
 
|-------| 
|-------| 
|-------| 
|-------| 
|-12-14-| 
|-13-15-| 
 
|----------------| 
|----------------| 
|----------------| 
|-12-12-12-12-12-| x3,then 
|-12-12-12-12-12-| 
|-10-10-10-10-10-| 
 
|----------------| 
|----------------| 
|----------------| 
|-15-15-15-15-15-| 
|-15-15-15-15-15-| 
|-13-13-13-13-13-| 
 
|-------------------------------------------------------| 
|-------------------------------------------------------| 
|-------------------------------------------------------| 
|-17-17-17-17-17-12h-12h-12h-12h-12h-12h-12h-12h-12h-12h| 
|-17-17-17-17-17----------------------------------------| 
|-15-15-15-15-15----------------------------------------|