The White Unicom chords

Wolfmother

Key: 

  			Tabbed for {Bones} 
 
 
These are the main bits to the song, the phychalelic bit in the  
middle uses variations of the chords in the verse plus other bits 
not played on guitar. 
 
 
 
Intro 
E---------------------------------------------------------------------------------------------- 
B--15-15-15----13-13-13----8--10-----3-3-3----------------------------------------------------- 
G--14-14-14----12-12-12----7--9------2-2-2----------------------------------------------------- 
D--0--0--0-----0--0--0-----0--0------0-0-0----------------------------------------------------- x4 
A---------------------------------------------------------------------------------------------- 
D---------------------------------------------------------------------------------------------- 
 
 
Verse 
E---------------------------------------------------------------------------------------------- 
B--15-15-15----13-13-13----8--10-----3-3-3----------------------------------------------------- 
G--14-14-14----12-12-12----7--9------2-2-2-----------------------------------------------------x8 
D--0--0--0-----0--0--0-----0--0------0-0-0----------------------------------------------------- 
A---------------------------------------------------------------------------------------------- 
D---------------------------------------------------------------------------------------------- 
"Have you been to the...... 
 
 
Chorus 
E---------------------------------------------------------------------------------------------- 
B---------------------------------------------------------------------------------------------- 
G---------------------------------------------------------------------------------------------- 
D---12---12-/-15-----/-10-10---10-/-12---------------------------------------------------------x4 
A---12---12-/-15-----/-10-10---10-/-12--------------------------------------------------------- 
D---12---12-/-15-----/-10-10---10-/-12--------------------------------------------------------- 
"oh.. It's on your mind 
 
 
Chorus Outro 
E---------------------------------------------------------------------------------------------- 
B---------------------------------------------------------------------------------------------- 
G---------------------------------------------------------------------------------------------- 
D---7-7-7-7-7-7--------------------------------------------------------------------------------x1 
A---7-7-7-7-7-7--ETC--------------------------------------------------------------------------- 
D---7-7-7-7-7-7-------------------------------------------------------------------------------- 
"We could live together...... 
 
 
Listen to the song to get the structure 
 
 
 
These are the basic bits to the song, some of the phychodelic bit in the  
middle uses variations of the chords in the verse plus. 
 
 
This seems right from how they play it live, Drop D tuning makes 
the chorus easy and sound a bit more accurate, but hey play it how you like 
 
 
This is my first tab so send and questions/improvements, just not any abuse 
or molotovs! 
 
 
to.. 
[email protected]