Minds Eye chords

Wolfmother

  			Tabbed by Tom Fleay 
 
intro 
|-----12----12----12----12----12----12----12----12--| 
|--13----13----13----13----12----12----12----12-----| 
|---------------------------------------------------| 
|---------------------------------------------------| 
|---------------------------------------------------| 
|---------------------------------------------------| 
 
 
|-----12----12---12----12----12----12----12----12---| 
|--10----10---10----10----10----10----10----10------| 
|---------------------------------------------------| 
|---------------------------------------------------| 
|---------------------------------------------------| 
|---------------------------------------------------| 
 
verse 
|------------------------------------------| 
|------------------------------------------| 
|------------------------------------------| 
|--7------------5-------------3------------| 
|--7------------5-------------3------------| 
|--5------------3-------------1------------| 
 
interlude 
|--------------------------------| 
|--------------------------------| 
|--------------------------------| 
|---------------------10-12--14--| 
|--3--5--7--9--10-12--8--10--12--| 
|--1--3--5--7--8--10-------------| 
 
chorus 
|-----------------------| 
|-----------------------| 
|-----------------------| 
|--7----12\--10---12\---| 
|--7----12\--10---12\---| 
|--5----10\--8----10\---| 
 
organ solo 
|---------------------| 
|---------------------| 
|---------------------| 
|--7---12---10---12---| 
|--7---12---10---12---| 
|--5---10---8----10---|