My Tangerine Dream chords

Wolfmother

  			#^T = Bend up 1 tone (2 semi-tones) 

Intro: 

E---------------------------------------------| 
B---------------------------------------------| 
G---------------------------------------------| 
D-11-11-11-------------11----------11-13^T-11-| 
A-11-11-11-------11-13-------11-13------------| 
E-09-09-09-11-13------------------------------| 

E---------------------------------------------| 
B---------------------------------------------| 
G---------------------------------------------| 
D-11-11-11-------------11----------11---------| 
A-11-11-11-------11-13-------11-13----11------| 
E-09-09-09-11-13------------------------------| 

Verse: 

E--------------------| 
B--------------------| 
G--------------------| 
D-11-----13-13^T-11--| 
A-11-----------------| 
E-09-----------------| 

E--------------------| 
B--------------------| 
G--------------------| 
D-09------06---------| 
A-09------06---------| 
E-07------04---------| 

Chorus: