New Crown chords

Wolfmother

  			Intro 
e|---------------------------------------| 
B|---------------------------------------| 
G|----9p7---------7-----9p7-----------7--| 
D|-99----9--99-------99----9------7h9--9-| 
A|-99-------99-7h9---99-------7h9--------| 
E|-77-------77-------77------------------| 

Verse 

e|---    A bunch of these followed by e|-----| 
B|---                                 B|-----| 
G|---                                 G|-----| 
D|-9-                                 D|-7-8-| 
A|-9-                                 A|-7-8-| 
E|-7-                                 E|-5-6-| 

Chorus 

e|----------| 
B|----------|  Each played a few times 
G|----------| 
D|-12-11-10-| 
A|-12-11-10-| 
E|-10-9--8--|