The Love That You Give chords

Wolfmother

  			
Main Riff 
e|-----------------------|-----------------------| 
B|-----------------------|-----------------------| 
G|-----------------------|-----------------------| 
D|-----------------------|---------3---5---3-----| 
A|-3h5-5-5--5-3h5-5-5--5-|-3---5---------------5-| 
E|-----------------------|-----------------------| 


Verse Riff 1 
e|-----------------------|       e|-----------------------| 
B|-----------------------|       B|-----------------------| 
G|-----------------------|       G|-----------------------| 
D|-----------------------|       D|---------3---5---3-----| 
A|-3h5-5-5--5-3h5-5-5--5-|       A|-3---5---------------5-| 
E|-----------------------|  x3   E|-----------------------| 

Verse Riff 2 
e|-------------------------|-------------------------| 
B|-------------------------|-------------------------| 
G|-------------------------|-------------------------| 
D|-------------------------|-------------------------| 
A|-------------------------|-------------------------| 
E|-3-3-3-3-3-3-3-3-3-3-3-3-|-3-3-3-3-3-3-3-3-3-3-3-3-| 

e|-------------------------|-------------------------| 
B|-------------------------|-------------------------| 
G|-------------------------|-------------------------| 
D|-------------------------|-------------------------| 
A|-------------------------|-------------------------| 
E|-1-1-1-1-1-1-1-1-1-1-1-1-|-5-5-5-5-5-5-5-5-5-5-5-5-| 


Chorus Riff 
e|--------------|--------------|--------------|--------------| 
B|--------------|--------------|--------------|--------------| 
G|-7-7-7-7------|-5-5-5-5------|-8-8-8-8------|-5-5-5-5------| 
D|-7-7-7-7------|-5-5-5-5------|-8-8-8-8------|-5-5-5-5------| 
A|-5-5-5-5------|-3-3-3-3------|-6-6-6-6------|-3-3-3-3------| 
E|--------------|--------------|--------------|--------------|