Victorious chords

Wolfmother

  			
Intro/Verse: 

e|----------------------------------------------------------------------------------------------| 
B|----------------------------------------------------------------------------------------------| 
G|-9--------------------7-----------------------------------------------------------------------| 
D|-9--------------------7-----------------------------------------------------------------------| X6 
A|-7--------------------5--------------------4h5p4-4h5p4-4h5p4----------------------------------| 
E|---0-0-0-0-0--0-0-0-0---0-0-0-0-0--0-0-0-0-------------------3b4-0--0-0-0-0-0--0-0-0-0--------| 

e|---------------------------------------------------------------------------| 
B|---------------------------------------------------------------------------| 
G|---------------------------------------------------------------------------| 
D|---------------------------------------------------------------------------| X2 
A|-4h5p4-4h5p4-4h5p4---------------------------------------------------------| 
E|-------------------3b4-0--0-0-0-0-0--0-0-0-0-------------------------------| 

Chorus: